Matt Pond Pa - Promise The Party Chords & Tabs

 

Promise The Party Chords & Tabs

Matt Pond Pa Chords & Tabs

Version: 1 Type: Tab

Promise The Party Tab

   
Title:  'Promise the Party'
Artist: matt pond PA (mattpondpa.com)
Album:  The Nature of Maps
Tabbed by Jorge Díaz (j_diaz_s@yahoo.com)


            E A D G B E

C         --x-3-2-0-1-0--|
Csus4     --x-3-2-0-1-3--|
Cadd9sus4 --x-3-2-0-1-0--|


 Intro: (0:04)

E ---------3---------------------|
B -3--5--3--5-3--5-3----5-----5--|
G -------------------5-----5-----| (x2)
D -------------------------------|
A -------------------------------|
E -------------------------------|

E -----3--5--3------5-3--------|
B -5------------5--------------|
G ---5--5--5--5---5----5-------| (x2) (*)
D -----------------------5--5--|
A -----------------------------|
E -----------------------------|


 Verse 1: (0:44)

E ----3--3-------3--3------3--3------|
B ---5--5--5----5--5--5---5--5--5----|
G -5--5--5----5--5--5----5--5--5--5--| (x2, one for each line)
D -----------------------------------|
A -----------------------------------|
E -----------------------------------|

We broke the windows so we could see everything
Beyond the pines and passes we'll see what we mean


 Bridge 1: (0:57)

E -1-0--1--1^3---0-------------|
B ------------3---1-(1-1-1-1)--|
G -----------------------------| (x3, one solo, the last two for each line)
D -----------------------------|
A -----------------------------|
E -----------------------------|


The party left me - I was getting in the way
they had to leave me - but the landmarks aren't that bad
[ Tab from: http://www.guitartabs.cc/tabs/m/matt_pond_pa/promise_the_party_tab.html ]
 Chorus: (1:16)

E -1-0--------1-0--------1-0---|
B ----1----------1----------1--| (1)
G -----------------------------|
D -----------------------------|
A -----------------------------|
E -----------------------------|

E -0-1-0-1-0-1-0-1--|
B ------------------| (2)
G ------------------|
D ------------------|
A ------------------|
E ------------------|

E -0-1-3-1-0-1-3-1--5-(5-5-5)--|
B -----------------------------| (3)
G -----------------------------|
D -----------------------------|
A -----------------------------|
E -----------------------------|

(1) You think of yourself an Atlast
    Coming off (rubbing off) you're more as factless
    So simpler we'll see what's attractive
(2) Mapping points till it seems lineless
(3) Pointing out a perfect likeness


 [Repeat (*) part of Intro ]


 Verse 2: (1:46)

Recall the callous in its position on the line
The gaze that comes through it won't give you anything

 Bridge 2: (1:59)

They had to leave me - and I'm proud to have a part
They had to leave me - it's the nature of concern


[Repeat Chorus]

Outro: (2:34)

C - Csus4 - Cadd9sus4 - C
C - Csus4 - Cadd9sus4 - C

Repeat (*)

E -1-0---0-3-0-0-3-1-0---0-3-0-0-3-1-0--0-3-0-0-3-1-0-0--|
B -----1---------------1---------------1--------------1--|
G ----------------------------------------------------0--|
D ----------------------------------------------------2--|
A ----------------------------------------------------3--|
E ----------------------------------------------------x--|