Matt Nathanson - Angel Chords & Tabs

 

Angel Chords & Tabs

Matt Nathanson Chords & Tabs

Version: 1 Type: Tab 0 ratings
1 star 2 stars 3 stars 4 stars 5 stars
comments

Angel Tab

okay...this is the 1st song ive ever tabbed...so here it goes...

verse:
e------3----3---3----3----3-----3-----3-----3----------------------|
b------3----3---3----3----3-----3-----3-----3----------------------|
g------------------------------------------------------------------|
d----------------------------------0------0------------------------|
a------------------2----3----3-------------------------------------|
E--3-----3---3-----------------------------------------------------|

Chorus:"Angel, you sing..."
[ Tab from: http://www.guitartabs.cc/tabs/m/matt_nathanson/angel_tab.html ]
e----3-------------3----------3--------3---------------------------------|
b----3-------------3----------3--------3---------------------------------|
g------------------------------------------------------------------------|
d------x4-------0----x4---------x4------------x4-------------------------|
a------------------------------------3-----------------------------------|
E--3------------------------0--------------------------------------------|

i didnt tab the bridge but its easy enough for you to figure out.... thats all there is 
this song...not too bad...thanks for checkin this tab out...rate it please!!!!
Comments