Matt Mays - On The Hood Chords & Tabs

 

On The Hood Chords & Tabs

Matt Mays Chords & Tabs

Version: 1 Type: Tab 0 ratings
1 star 2 stars 3 stars 4 stars 5 stars
comments

On The Hood Tab

   
Here's a great song by Nova Scotia's Rising star, Matt Mays. I have everything for this 
except the lead break.


the strumming pattern is a down up down up, up down up

Guitar1
part 1: X 18
|-----------------------------------------------------------------------------|
|------8---8-----8-----10-----10-10--10------5---5---5---5--5--5--5-----------|
|------9---9-----9-----9------9--9---9-------4---4---4---4--4--4--4-----------|
|------10--10----10----10-----10-10--10------5---5---5---3--3--3--3-----------|
|--------------------------------------------------------3--3--3--3-----------|
|-----------------------------------------------------------------------------|
part 2: X 2
|---------------------------------------------------|
|--1-------------------------1----------------------|
|--0-------------------------2----------------------|
|--2----2----2--2--2--2------2--2--2--2--2--2-------|
|--3-------3---3--3--3-------0----0--0--0--0--------|
|---------------------------------------------------|
[ Tab from: http://www.guitartabs.cc/tabs/m/matt_mays/on_the_hood_tab.html ]
|-----------8------------------8----------------8-----|
|--------8b9-9b8-----8------8b9-9b8-------------------| ~ = vibrato
|-----------------8b9-9b8-----------8~~~~~~~~---------|
|-----------------------------------------------------|
|-----------------------------------------------------|
|-----------------------------------------------------|

Guitar2
Palm mute thru this first part
|-----------------------------------------------------|
|-----------------------------------------------------|
|-----------------------------------------------------|
|--555------------------------------------------------|
|--333-777-222-555------------------------------------|
|------555-000-333------------------------------------|

also jaretts part, in the chorus use the same strumming pattern that you used for the 
except with these notes

C C C Am Am Am Am, Em Em Em G G G G


there you are, im currently working on the solo, but for now this should keep you busy.
Comments