Matt Mays - Cocaine Cowgirl Chords & Tabs

 

Cocaine Cowgirl Chords & Tabs

Matt Mays Chords & Tabs

Version: 3 Type: Tab 0 ratings
1 star 2 stars 3 stars 4 stars 5 stars
comments

Cocaine Cowgirl Tab

   
Q - quarter note 
E - 8th note

Lowercase letters indicate rests

If a '+' sign appears after a note then that note is tied to (held on to) the next note.


   E E E E E E E E   E E E E E E E E  
E|-----------------|-----------------|
B|-----------------|-----------------|  First two are hard,
G|-----------------|-----------------|  then the next four
D|-----------------|-----------------|  decrease in volume
A|-----------------|-----------------|  (Echo Effect)
E|-0-0-----0-0-----|-0-0-----0-0-----|

   E E E Q   E E E   E E E Q   E E E   E E E Q   E E E   E E E Q   E E E
E|-------3-------2+|-2-----0-------0+|-0-----0-------0+|-0---------------|
B|-----0-------0---|-----0-------0-3+|-3---0-1-----0-0+|-0---0-0---------|
G|---0-------0-----|---0-------0-----|---0-------0-----|---0---2---------| 
D|-----------------|-----------------|-----------------|-----------2-2-2-|
A|-----------------|-----------------|-----------------|-----------------|
E|-0---------------|-----------------|-----------------|-----------------|
   ^This note is only played the first time
Play through 4 times

Em               C                G
Lookin' back through the chapters of your life 
          Em    C       G
Searching for a storyline 
           Em                        
'Cause the one you're livin' now's doin' nothing for you 
        C                           G 			Em
Say goodbye to your friends and the ones who love you 
       C         G
Movin' on 
[ Tab from: http://www.guitartabs.cc/tabs/m/matt_mays/cocaine_cowgirl_tab_ver_3.html ]
   E E E Q   E E E   E E E Q   E E E   E E E Q   E E E   E E E Q   E E E
E|-------3-------2+|-2-----0-------0+|-0-----0-------0+|-0---------------|
B|-----0-------0---|-----0-------0-3+|-3---0-1-----0-0+|-0---0-0---------|
G|---0-------0-----|---0-------0-----|---0-------0-----|---0---2---------| 
D|-----------------|-----------------|-----------------|-----------2-2-2-|
A|-----------------|-----------------|-----------------|-----------------|
E|-0---------------|-----------------|-----------------|-----------------|
Two Times

     Em              C            G
JJ's song, it's been pushing you along 
      Em  C              G
Gypsy man on a one night stand 
Em 
Movin' through the night far from the lights 
      C                     G				Em
On an asphalt path drifting over the white line 
      C              G
Gypsy man nobody knows 

        Em
Cocaine cowgirl 
      C            G
She's out catchin' eyes 
       Em        C             G
On the other end of the desert skies 
Em
Takin' you down to the dark side of town
  C            G
A dark side of town 
Em      C                     G
Cocaine cowgirl nobody knows 
           Em            C                G
Lookin' back through the chapters of your life 
          Em    C       G
Searchin' for a storyline 
Em 
'Cause any line is a good time for you
C                               G 		       Em
Readin' what the world has been writing for you 
        C                G
Cocaine cowgirl nobody knows
 
Em
'Cause any line is a good time for you 
C                	     G			 Em
Livin' what the world has written for you
      C              G  
Gypsy man nobody knows 

Em
'Cause any line is a good time for you
C                         G 			 Em
Livin' what the world has written for you
        C                 G
Cocaine cowgirl nobody knows 

   E E E Q   E E E   E E E Q   E E E   E E E Q   E E E   E E E Q   E E E
E|-------3-------2+|-2-----0-------0+|-0-----0-------0+|-0---------------|
B|-----0-------0---|-----0-------0-3+|-3---0-1-----0-0+|-0---0-0---------|
G|---0-------0-----|---0-------0-----|---0-------0-----|---0---2---------| 
D|-----------------|-----------------|-----------------|-----------2-2-2-|
A|-----------------|-----------------|-----------------|-----------------|
E|-0---------------|-----------------|-----------------|-----------------|
Four Times

Solo Outro

Em C G  Em
________________________
Tabbed By Scott McDonald
Comments