Matt Mays - Cocaine Cowgirl Chords & Tabs

 

Cocaine Cowgirl Chords & Tabs

Matt Mays Chords & Tabs

Version: 1 Type: Tab 0 ratings
1 star 2 stars 3 stars 4 stars 5 stars
comments

Cocaine Cowgirl Tab

   
Em

|--3-2-0------------|--3-2-0----------|
|--------3-1-0------|--------3-1-0----|
|--------------2-0--|-----------------|Repeat First Bar 2 Times
|-------------------|-----------------|
|-------------------|-----------------|
|-------------------|-----------------|

|--3-2-0------------|--3-2-0-----------|
|--------3-1-0------|--------3-1-0-----|
|--------------2-0--|--------------2-0-|
|-------------------|------------------|
|-------------------|------------------|
|-------------------|------------------|


         Em                    C             G
Lookin' back through the chapters of your life 
          Em        C       G
Searching for a storyline 
           Em                        
'Cause the one you're livin' now's doin' nothing for you 
        C                               G 
Say goodbye to your friends and the ones who love you 
Em       C         G
Movin' on 

Em       C     G       Em     C     G 
|--3-2-0------------|--3-2-0-----------|
|--------3-1-0------|--------3-1-0-----|
|--------------2-0--|--------------2-0-|
|-------------------|------------------|
|-------------------|------------------|
|-------------------|------------------|
[ Tab from: http://www.guitartabs.cc/tabs/m/matt_mays/cocaine_cowgirl_tab.html ]
    Em                 C            G
JJ's song, it's been pushing you along 
      Em   C                    G
Gypsy man on a one night stand 
Em 
Movin' through the night far from the lights 
       C                        G
On an asphalt path drifting over the white line 
Em     C     G
Gypsy man nobody knows 

         Em
Cocaine cowgirl 
       C             G
She's out catchin' eyes 
       Em  C             G
On the other end of the desert skies 
Em
Takin' you down to the dark side of town
 C               G
A dark side of town 

Em        C               G
Cocaine cowgirl nobody knows 
          Em                  C                G
Lookin' back through the chapters of your life 
           Em       C    G
Searchin' for a storyline 
Em 
'Cause any line is a good time for you
C                                   G 
Readin' what the world has been writing for you (cocaine) 
Em        C                G
Cocaine cowgirl nobody knows
 
Em
'Cause any line is a good time for you 
C                	     G	
Livin' what the world has written for you (cocaine)
 Em    C      G  
Gypsy man nobody knows 

Em
'Cause any line is a good time for you
C                             G 
Livin' what the world has written for you (cocaine) 
Em         C                 G
Cocaine cowgirl nobody knows 

(Repeat Em C G several times and fade)
Comments