Matt Mays - Back Home Weather Chords & Tabs

 

Back Home Weather Chords & Tabs

Matt Mays Chords & Tabs

Version: 1 Type: Tab 0 ratings
1 star 2 stars 3 stars 4 stars 5 stars
comments

Back Home Weather Tab

   
Back Home Weather

Intro Picking Pattern
|---------------------------3--------------2----------| 
|-----------------------------3----------3-----3-2-2--| 
|----------0-----------------------0---2-------2-2-2--| 
|--------2---2-----------0-----------0----------------| 
|------2----------0----2------------------------------| 
|----0---------------3--------------------------------| 

|---------------------------3--------------2----------| 
|-----------------------------3----------3-----3-2-2--| 
|----------0-----------------------0---2-------2-2-2--| 
|--------2---2-----------0-----------0----------------| 
|------2----------0----2------------------------------| 
|----0---------------3--------------------------------| 

|---------------------------3--------------2----------| 
|-----------------------------3----------3-----3-2-2--| 
|----------0-----------------------0---2-------2-2-2--| 
|--------2---2-----------0-----------0----------------| 
|------2----------0----2------------------------------| 
|----0---------------3--------------------------------| 

|---------------------------3--------------2----------| 
|-----------------------------3----------3-----3-2-2--| 
|----------0-----------------------0---2-------2-2-2--| 
|--------2---2-----------0-----------0----------------| 
|------2----------0----2------------------------------| 
|----0---------------3--------------------------------|


Strumming Pattern                               
|---------0-0-0-------3-3-0-----2-2-2-2-2-2-0-0--| 
|---------0-0-0-------3-3-0-----3-3-3-3-3-3-2-2--| 
|---------0-0-0-------0-0-0-----2-2-2-3-2-2-2-2--| 
|---------2-2-0-------0-0-0-0-0------------------| 
|---------2-2-0-------2-2-0----------------------| 
|----0-0--0-0-0--3-3--3-3-0----------------------|

Em           G                   D            
Back home weather's got you down
Em          G                 D
lookin to move on and skip town
Em          G               D
lookin to get lost to be found
Em             G                 D
cuz back home weathers got you down
[ Tab from: http://www.guitartabs.cc/tabs/m/matt_mays/back_home_weather_tab.html ]
Em           G                D
you say you got somewhere to go
Em                              G                 D           
where the palms grow tall and the air lets you know 
Em                 G                    D        
roll the windows down as far's they'll go
Em             G                 D
so you say you got somewhere to go


A               Em
take your time enjoy the view
          G              D
don't let 'em get to you anymore
    A            
let everything slide
    Em
go 'long for the ride
              G
make sure that you decide
           Em       G      D
where you're goin'


Em    G        D
Em       G            D 
foreign car with northern plates
headin' down through the southern states
find a decent motel with decent rates
in a northern car with foreign plates
in a foreign car with northern plates 

A               Em
take your time enjoy the view
          G              D
don't let 'em get to you anymore
    A            
let everything slide
    Em
go 'long for the ride
              G
make sure that you decide
           Em       G      D
where you're goin'

A               Em
take your time enjoy the view
          G              D
don't let 'em get to you anymore
    A            
let everything slide
    Em
go 'long for the ride
              G
make sure that you decide
           Em       G      D
where you're goin'
           Em       G      D
where you're goin'
           Em       G      D
where you're goin'
           Em       G      D
where you're goin'
           Em       G      D
where you're goin'
           Em       G      D
where you're goin'

{Repeat Em  G  D to end}
Comments