Matt.h - Easy Redemtion Chords & Tabs

 

Easy Redemtion Chords & Tabs

Matt.h Chords & Tabs

Version: 1 Type: Tab 2 ratings
1 star 2 stars 3 stars 4 stars 5 stars
comments

Easy Redemtion Tab

verse 1

3-----------------3--------------------------------------
-----0---2---0---------2---------------------------------
---------------------------2---0-------------------------
---------------------------------------------------------
---------------------------------------------------------
---------------------------------------------------------


verse 2
[ Tab from: http://www.guitartabs.cc/tabs/m/matt_h/easy_redemtion_tab.html ]
3--------------3-----------------------------------------
---0---2---0-------2-------------------------------------
-----------------------0---------------------------------
---------------------------------------------------------
---------------------------------------------------------
---------------------------------------------------------

verse 3

3---------------3-----------------------3----------------
----0---2---0-------2-----------3---0--------------------
------------------------2---0----------------------------
---------------------------------------------------------
---------------------------------------------------------
---------------------------------------------------------


Bob Marleys Redemtion is where i got this song from. I just altered it a little to make it easier
for beginners. 
Comments