Matt Costa - Sunshine Chords & Tabs

 

Sunshine Chords & Tabs

Matt Costa Chords & Tabs

Version: 2 Type: Tab

Sunshine Tab

   
Tabbed by Marius.M
Capo 1, notes relative to capo
Listen to the song for the rythm

      D    A    G     B
e ----2----0----3-----2-------|
B ----3----2----3-----3-------|
G ----2----2----------4-------|
D ----0----2----------4-------|
A --------------2-----2-------|
E --------------3-----2-------|

Intro            D
e ----------------------------|
B ----------------------------|
G -4p2------------------------|
D -----3h4-0--3h4--0----------|
A ----------------------------|
E ----------------------------|

 D    A       G             A
Sunshine I'd really like to tell you all my

 D    A       B           G
Sunshine even though your skys are

 D               A         B             G
blue your drying up my bed how can I get any rest

 D         A         D
sha la la la la la la la la

 D    A  G          	    A
some day you will get the best of me

 D   A             B        G
Some day probably when I'm old and grey

 D        A            B               G
Im lying in my bed and I will soon be put to rest now

 D         A         B        A
sha la la la la la la la la

Solo-

e ----------5----5-----5-----5----5-5h7-5---------------------------|
B -------5h7--5h7---5h7---5h7--5h7--------5h7-5---------------------|
G ------------------------------------------------7>----------------|
D ------------------------------------------------------------------|
A -0-2-5------------------------------------------------------------|
E ------------------------------------------------------------------|

[ Tab from: http://www.guitartabs.cc/tabs/m/matt_costa/sunshine_tab_ver_2.html ]
e ------5----5-----5-----5----5---5/10----77\5---------------------|
B ---5h7--5h7---5h7---5h7--5h7-------------------77/8--------------|
G ------------------------------------------------------------------|
D ------------------------------------------------------------------|
A ------------------------------------------------------------------|
E ------------------------------------------------------------------|


e ---/10--10--10---9---7\7----5-------------------------------------|
B -----------------9-------------7--------5-------------------------|
G -------------------------------------7>---------------------------|
D ------------------------------------------------------------------|
A ------------------------------------------------------------------|
E ------------------------------------------------------------------|


e -------5-----5--------------------------------10---10-------------|
B 5/7------7-----77\5---7---5h7---5------/10-------10-------------|
G -------------------------------------7>---------------------------|
D ------------------------------------------------------------------|
A ------------------------------------------------------------------|
E ------------------------------------------------------------------|
 D    A       G             A
Sunshine I'd really like to tell you all my

 D    A       B             G
Sunshine even though your skys are

 D               A         B             G
Blue your drying up my bed how can I get any rest

 D         A         D
sha la la la la la la la la

 D        A   	   G                A
And some day you will get the best of me

 D   	  A         B        G
 Some day probably when I'm old and grey

 D        A            B               G
Im lying in my bed and I will soon be put to rest now


h = Hammer on
p= Pull off
>=stretch 
/=slide up
\=slide down

Have fun!