Matt Costa - Sunshine Chords & Tabs

 

Sunshine Chords & Tabs

Matt Costa Chords & Tabs

Version: 1 Type: Chords 0 ratings
1 star 2 stars 3 stars 4 stars 5 stars
comments

Sunshine Chords

   
this is the best i could do! i saw thisguy play with jack johnson a few days ago he awesome!


Chords:
                   Eb   A#   Ab  Cm
|---0----7----0---0---------------------|
|---3----10---0---0---------------------|
|---2----9----0---7---------------------|
|---0----7----0---9---------------------|
|---0----7----5---9---------------------|
|---0----7----5---9---------------------|


 Eb  A#        Ab             A#
Sunshine, I'd really like to tell you are my
 Eb  A#        Cm            Ab
Sunshine, even though your skies are
 Eb                A#
Blue you're drying up my bed
 Cm           Ab
How can I get any rest now?
 Eb       Ab             Eb
Sha la la la la la la la la
[ Tab from: http://www.guitartabs.cc/tabs/m/matt_costa/sunshine_crd.html ]
 Eb  A#    Ab               A#
Someday, you will get the best of me oh
 Eb  A#            Cm      Ab
Someday, probably when I'm old and
 Eb            A#
Gray I'm lying in my bed
    Cm	           Ab
And I will soon be put to rest now

 Eb       Ab          Eb
Sha la la la la la la la

Solo: I'm not going to tab out the solo but I will give you the chord
progression.

                 Ab  Eb  Ab  Eb  A#  Cm  Ab  Eb  A#
|--------0---0---0---0---7---0---0---0---7--------------|
|--------0---3---0---3---10--0---0---3---10-------------|
|--------0---2---0---2---9---7---0---2---9--------------|
|--------0---0---0---0---7---9---0---0---7--------------|
|--0-2-5-2---0---2---0---7---9---2---0---7--------------|
|--------2---0---2---0---7---9---2---0---7--------------|

Sunshine, I'd really like to tell you are my
Sunshine, even though your skies are
Blue you're drying up my bed
How can I get any rest now?

Sha la la la la la la la la

Someday, you will get the best of me oh
Someday, probably when I'm old and
Gray I'm lying in my bed
And I will soon be put to rest now


Sha la la la la la la la
Comments