Matt Costa - Cold December Chords & Tabs

 

Cold December Chords & Tabs

Matt Costa Chords & Tabs

Version: 1 Type: Tab 0 ratings
1 star 2 stars 3 stars 4 stars 5 stars
comments

Cold December Tab

hey this is again another great song of matt. playing with the song makes the strumming
way way way easier. once again enjoy.

|-----------------------------------|
|-----------------------------------|
|-----------------------------------|
|----8------------------13----------| repeat
|----8-(many times)------13---------|          
|----6------------------11----------|
 ive been waiting..........

keeps doing that untill this comes around

|------------------|
|------------------|
|------------------|
|--10--------------| repeat   
|--10--------------|    
|--8---------------|
if only time could slow down  
[ Tab from: http://www.guitartabs.cc/tabs/m/matt_costa/cold_december_tab.html ]
|------------------|
|------------------|
|------------------|
|-8--13--5---------|   
|-8--13--5---------|    
|-6--11--3---------|
  the maybe...

|----------------------|     |-------------------------------|
|----------------------|     |-------------------------------|
|----------------------| x4  |-------------------------------|
|-----5---------13--15-|     |--13---16-15--8----8----8----8-|              
|-----5-(slide)-13--15-|     |--13------------8-----8---8--8-|
|-----3---------11--13-|     |--11-------------------------6-|


after that it repeats itself over and over again

if you want it extended just email me aboghraty@yahoo.com
Comments