Matt Costa - Astair Chords & Tabs

 

Astair Chords & Tabs

Matt Costa Chords & Tabs

Version: 1 Type: Tab 0 ratings
1 star 2 stars 3 stars 4 stars 5 stars
comments

Astair Tab

   
----------------------------------------------------------------------------
			     Astair(Intro) - Matt Costa
----------------------------------------------------------------------------
Song:Astair(Intro)
Artist:Matt Costa
Tabbed by:Kyle 	wiese
Email: Canibus_55@hotmail.com

Tuning:(Standard) eADGBE

This is fairly close to the other version of the intro already submitted, but this 
is a little bit different at the end, and it uses a capo on the 4th fret. This is a great 
by an amazing artist.

****CAPO 4**** Tab is relative to capo
[ Tab from: http://www.guitartabs.cc/tabs/m/matt_costa/astair_tab.html ]
e|--------------------------------------------------------------------------|
B|--------------------------------------------------------------------------|
G|--------------------------------------------------------------------------|
D|-2-2-2-2---2-2-2-2---2-2-2-2---2-2-2-2---3-3-3-3----0-0-0-0---------------|
A|3-3-3-3---2-2-2-2---0-0-0-0--------------------------0-2------------------|
E|------------------------------3-3-3-3---1-1-1-1----3-----3----------------|


I dont have the complete tab, but the verse goes like this
     C     Em7     Am      Am/G      F        F
e|---------------------------------------------------------------------------|
B|1---1---3---3---1---1---1---1----1---1----1---1-----0-------0------0----0--|
G|---0-------0-------2-------2--------2--------2-----0-------0------0----0---|
D|--2-------2-------2-------2--------3--------3-----0-------0------0----0----|
A|3-------2-------0-----------------------------------------------2----------|
E|------------------------3--------1--------1------3-------5-----------3-----|

The amount that i've got sounds 100% to me, please tell me what you think
and please rate.
Comments