Mats Paulson - Visa Vid Vindens Angar Chords & Tabs

 

Visa Vid Vindens Angar Chords & Tabs

Mats Paulson Chords & Tabs

Version: 1 Type: Tab

Visa Vid Vindens Angar Tab

   
Visa vid vindens ängar
Text and music by: Mats Paulson

Here is my first tab I hope you will enjoy it. This is just
the first vers and the ref but it goes that way in the other verse to.
If there is any erors please contact me!
[ Tab from: http://www.guitartabs.cc/tabs/m/mats_paulson/visa_vid_vindens_angar_tab.html ]
         E       C#m        A         B7
|---------------------4-4-4-5--------------|	
|--2-3-7------------4---------4------------|
|-----------------2-------------2---2-4----|
|-------------1-1-----------------1--------|
|-------0-0-0------------------------------|
|------------------------------------------|
        E        C#m        A     B7  E
|---------------------4-4-4-5--------------|
|--2-3-7------------4---------4------------|
|-----------------2-------------2-----2----|
|-------------1-1-----------------1-1------|
|-------0-0-0------------------------------|
|------------------------------------------|
         F#m      B          G#m        C#9     F#m       B7
|------------------------------------------------------------|
|------------------------------------------------------------|
|------------------4-4—4----------------------------------4-4|
|--------------2-1--------1-2-----------1-1-2----------------|
|--0-0-0-2-5-2----------------0-4-0-4-0-------0-2-5-2-5-2----|
|------------------------------------------------------------|
    G#7 C#m    F#7  B7
|------------------------------|
|------------------------------|
|--4—----------4-2-4-----------|
|----1-2-1---1-----------------|
|----------0-------------------|
|------------------------------|
         E       C#m        A         B7
|---------------------4-4-4-5--------------|	
|--2-3-7------------4---------4------------|
|-----------------2-------------2---2-4----|
|-------------1-1-----------------1--------|
|-------0-0-0------------------------------|
|------------------------------------------|
        E        C#m        A     B7  E
|---------------------4-4-4-5--------------|
|--2-3-7------------4---------4------------|
|-----------------2-------------2-----2----|
|-------------1-1-----------------1-1------|
|-------0-0-0------------------------------|
|------------------------------------------|