Matisyahu - King Without A Crown Chords & Tabs

 

King Without A Crown Chords & Tabs

Matisyahu Chords & Tabs

Version: 6 Type: Tab

King Without A Crown Tab

Standard tuning
e--------------------------------------------------------------------------|
B---------------------8h9p8------------8h9-11-9-8----8----------8b---------|
G-7h8----7h8p7h810---------8h10p810-------------10---10-8h10-8--8h10-8h10|
D--------------------------------------------------------------------------|
A--------------------------------------------------------------------------|
E--------------------------------------------------------------------------|

i finally saw the live video and so i need to correct a few things
e----------------------------------------------------------------------|
B----------------------------------------------------------------------|
G-p8-7h8p7-5--------5-5-------7----7----7----7----7b----7----7----7----8|
D------------8-8-8-8----5--5-5--5-5--5-5--5-5--5-5--5-5--5-5--5-5--5-5-|
A----------------------------------------------------------------------|
E----------------------------------------------------------------------|
[ Tab from: http://www.guitartabs.cc/tabs/m/matisyahu/king_without_a_crown_tab_ver_6.html ]
e---------------|
B---------------|
G-8h10-8h10-12--|
D---------------|
A---------------|
E---------------|continues
                 
e------------------------------------------------------15--------------|
B---------------------------15h16h18-16-15---------18b----18-16p15-----|
G-15-17-17-------15h16h17-----------------17-15-17-----------------15--|
D----------15h17-------------------------------------------------------|
A----------------------------------------------------------------------|
E----------------------------------------------------------------------|

e-----18b-18-15--------------------------------------------------------|
B---------15----18-16-15----18-16-15-------16-15----------15-----------|
G-15---------------------17----------17-15-------17-15-------17-15-----|
D------------------------------------------------------17----------17--|
A----------------------------------------------------------------------|
E----------------------------------------------------------------------|

e------------------------15-15-----------------------------------------|
B--------------------18b-------18-16-15-16-18-16-15-16-----------------|
G--------------15h17-----------------------------------15h17-15h17-----|
D--15------------------------------------------------------------------|
A-----17-15-17---------------------------------------------------------|
E----------------------------------------------------------------------|

e----------------------------------------------------------------------|
B----------------------------------------------------------------------|
G15h17-17-17-17----------------------------0-0-0-0-0-0-0-0-0-0-0-0-0--|
D----------------------------8-10-10--------5-5-5-5-5-5-5-5-5-5-5-5-5--|
A-----------------8-8-10-10-----------8-8-8----------------------------|
E----------------------------------------------------------------------|

This is my first solo so its probably not that good