Matisyahu - King Without A Crown Chords & Tabs

 

King Without A Crown Chords & Tabs

Matisyahu Chords & Tabs

Version: 5 Type: Tab

King Without A Crown Tab

   
  standard tuning

King without a crown
Matisyahu
Live At Stubb's

\ Slide
~ let ring

INTRO x1
e--------------------------------------------------------------------------|
b-9~-----8~------------------11~------9----9~-----8---8~--6----------------|
g-10~----8~-----7~-----8~-----------------------------------7---7--8----8~-|
d---------------8~-----10~------------------------------------8------10----|
a----------------------------------------8---------6-----------------------|
E--------------------------------------------------------------------------|

e------8---8---------------------------------------------------------------|
b-9~-----9----8---8----6------------------11---9~---8~---------------------|
g-10~------6----8----------7---7--8----8-------10~--8~--7~---8~------------|
d----------------------8-----8------10------------------8~---10~-----------|
a--------------------------------------------------------------------------|
E--------------------------------------------------------------------------|

VERSE Part 1 x5


e----------3--3----1--1--1--1-----------3--3---8-8---8---8---8-------------|
b---4--4---4--4----3--3--3--3----4--4---4--4---9-9---9---9---9-------------|
g---5--5---5--5----3--3--3--3----5--5---5--5---1010--10--10--10------------|
d---6--6-------------------------6--6--------------------------------------|
a--------------------------------------------------------------------------|
E--------------------------------------------------------------------------|

VERSE Part 2 x1

e----------3--3---1--1--1--1-----------3--3----8---------------------------|
b---4--4---4--4---3--3--3--1----4--4---4--4----9---------------------------|
g---5--5---5--5---3--3--3--3----5--5---5--5----10--------------------------|
d---6--6------------------------6--6---------------------------------------|
a--------------------------------------------------------------------------|
E--------------------------------------------------------------------------|

CHORUS x1

e----------------------------------------------------------------------|
b-----------9-9-9----9\8--8-8----------------6-6-6---6-------8-8-8---8-|
g--10-10-10-------10----------8-8-8-8---7-7-7------7---8-8-8-------8---|
d----------------------------------------------------------------------|
a----------------------------------------------------------------------|
E----------------------------------------------------------------------|

e-----------------------------------------------------------------6-6---|
b-----------9-9-9----9\8--8-8----------------6-6-6---6---------8-8------|
g--10-10-10-------10----------8-8-8-8---7-7-7------7---8-8-8-8----------|
d-----------------------------------------------------------------------|
a-----------------------------------------------------------------------|
E-----------------------------------------------------------------------|

e--------8-8-8---8-6-6-6-----------------6-6-6---6----------------------|
b--9-9-9-------9---------8-8-8-8---6-6-6-------6---8-8-8----------------|
g--------------------------------------------------------8-8-8-8--------|
d-----------------------------------------------------------------------|
a-----------------------------------------------------------------------|
E-----------------------------------------------------------------------|

e-----------------------------------------------------------------------|
b-----------9-9-9----9\8--8-8----------------6-6-6----------------------|
g--10-10-10-------10----------8-8-8-8---7-7-7------7/8------------------|
d-----------------------------------------------------------------------|
a-----------------------------------------------------------------------|
E-----------------------------------------------------------------------|

VERSE 2 part 1 x1

e----------3--3----1--1--1--1-----------3--3---8-8---8---8---8-------------|
b---4--4---4--4----3--3--3--3----4--4---4--4---9-9---9---9---9-------------|
g---5--5---5--5----3--3--3--3----5--5---5--5---1010--10--10--10------------|
d---6--6-------------------------6--6--------------------------------------|
a--------------------------------------------------------------------------|
E--------------------------------------------------------------------------|

e----------3--3----1--1--1--1-----------3--3---8-8---8---8-------------------|
b---4--4---4--4----3--3--3--3----4--4---4--4---9-9---9---9---x-3-------------|
g---5--5---5--5----3--3--3--3----5--5---5--5---1010--10--10--x-4-------------|
d---6--6-------------------------6--6------------------------x-5-------------|
a----------------------------------------------------------------------------|
E----------------------------------------------------------------------------|

VERSE 2 part 2 x2
e----------3--3----1--1--1--1-----------3--3---8-8---8---8---8-------------|
b---4--4---4--4----3--3--3--3----4--4---4--4---9-9---9---9---9-------------|
g---5--5---5--5----3--3--3--3----5--5---5--5---1010--10--10--10------------|
d---6--6-------------------------6--6--------------------------------------|
a--------------------------------------------------------------------------|
E--------------------------------------------------------------------------|

VERSE 2 part 3 x1

e----------3--3----1--1--1--1-----------3--3----8----------------------------|
b---4--4---4--4----3--3--3--3----4--4---4--4----9----------------------------|
g---5--5---5--5----3--3--3--3----5--5---5--5----10---------------------------|
d---6--6-------------------------6--6----------------------------------------|
a----------------------------------------------------------------------------|
E----------------------------------------------------------------------------|
[ Tab from: http://www.guitartabs.cc/tabs/m/matisyahu/king_without_a_crown_tab_ver_5.html ]
CHORUS 2 x1
e----------------------------------------------------------------------|
b-----------9-9-9----9\8--8-8----------------6-6-6---6-------8-8-8---8-|
g--10-10-10-------10----------8-8-8-8---7-7-7------7---8-8-8-------8---|
d----------------------------------------------------------------------|
a----------------------------------------------------------------------|
E----------------------------------------------------------------------|

e-----------------------------------------------------------------6-6---|
b-----------9-9-9----9\8--8-8----------------6-6-6---6---------8-8------|
g--10-10-10-------10----------8-8-8-8---7-7-7------7---8-8-8-8----------|
d-----------------------------------------------------------------------|
a-----------------------------------------------------------------------|
E-----------------------------------------------------------------------|

e--------8-8-8---8-6-6-6-----------------6-6-6---6----------------------|
b--9-9-9-------9---------8-8-8-8---6-6-6-------6---8-8-8----------------|
g--------------------------------------------------------8-8-8-8--------|
d-----------------------------------------------------------------------|
a-----------------------------------------------------------------------|
E-----------------------------------------------------------------------|

e-----------------------------------------------------------------------|
b-----------9-9-9----9\8--8-8----------------6-6-6----------------------|
g--10-10-10-------10----------8-8-8-8---7-7-7------7/8------------------|
d-----------------------------------------------------------------------|
a-----------------------------------------------------------------------|
E-----------------------------------------------------------------------|

************************************************************************
B    S
 A    O             BASS                     BASS
  S    L                   SOLO                    SOLO
   S    O
*************************************************************************


BRIDGE part 1 x

e--8--8----6-6-6---------------------8--8------6-6-6----------------------|
b--9--9----8-8-8----6--6---8--8--8---9--9------8-8-8---6----6--8--8--8----|
g--10-10---8-8-8----7--7---8--8--8---10-10-----8-8-8---7----7--8--8--8----|
d-------------------8--8---10-10-10--------------------8----8--10-10-10---|
a-------------------------------------------------------------------------|
E-------------------------------------------------------------------------|

BRIDGE part 2 x1

e--8--8---6-6-6---------------------8--8----6-6-6--------------------------|
b--9--9---8-8-8----6--6---8--8--8---9--9----8-8-8-----6---6--8-------------|
g--10-10--8-8-8----7--7---8--8--8---10-10---8-8-8-----7---7--8-------------|
d------------------8--8---10-10-10--------------------8---8--10------------|
a--------------------------------------------------------------------------|
E--------------------------------------------------------------------------|

CHORUS 3 x1

e----------------------------------------------------------------------|
b-----------9-9-9----9\8--8-8----------------6-6-6---6-------8-8-8---8-|
g--10-10-10-------10----------8-8-8-8---7-7-7------7---8-8-8-------8---|
d----------------------------------------------------------------------|
a----------------------------------------------------------------------|
E----------------------------------------------------------------------|

e-----------------------------------------------------------------6-6---|
b-----------9-9-9----9\8--8-8----------------6-6-6---6---------8-8------|
g--10-10-10-------10----------8-8-8-8---7-7-7------7---8-8-8-8----------|
d-----------------------------------------------------------------------|
a-----------------------------------------------------------------------|
E-----------------------------------------------------------------------|

e--------8-8-8---8-6-6-6-----------------6-6-6---6----------------------|
b--9-9-9-------9---------8-8-8-8---6-6-6-------6---8-8-8----------------|
g--------------------------------------------------------8-8-8-8--------|
d-----------------------------------------------------------------------|
a-----------------------------------------------------------------------|
E-----------------------------------------------------------------------|

e-----------------------------------------------------------------------|
b-----------9-9-9----9\8--8-8----------------6-6-6----------------------|
g--10-10-10-------10----------8-8-8-8---7-7-7------7/8------------------|
d-----------------------------------------------------------------------|
a-----------------------------------------------------------------------|
E-----------------------------------------------------------------------|


OUTRO x1

e--8--8----6-6-6---------------------8--8------6-6-6-----------------------|
b--9--9----8-8-8----6--6---8--8--8---9--9------8-8-8---6----6--8--8--8-----|
g--10-10---8-8-8----7--7---8--8--8---10-10-----8-8-8---7----7--8--8--8-----|
d-------------------8--8---10-10-10--------------------8----8--10-10-10----|
a--------------------------------------------------------------------------|
E--------------------------------------------------------------------------|

e--8--8----6-6-6---------------------8--8------6-6-6-----------------------|
b--9--9----8-8-8----6--6---8--8--8---9--9------8-8-8---6----6--8-----------|
g--10-10---8-8-8----7--7---8--8--8---10-10-----8-8-8---7----7--8-----------|
d-------------------8--8---10-10-10--------------------8----8--10----------|
a--------------------------------------------------------------------------|
E--------------------------------------------------------------------------|