Matisyahu - King Without A Crown Chords & Tabs

 

King Without A Crown Chords & Tabs

Matisyahu Chords & Tabs

Version: 4 Type: Tab

King Without A Crown Tab

Matisyahu:King Without A Crown (live at Stubbs)
Tabbed by:Jed Rangel
Email: Rangel7@netzero.com

\= slide
p= pull


               intro:
  
e|-------------------|---------------------1--------------|
B|-9-----8----3----4-|-11--9---9-------8-----3---3--4---4-|
G|-10----8----3----5-|----------10-------8-----3------5---|
D|-10----8----3----5-|---------------8--------------------|
A|-8-----6----1----3-|-------8-----6----------------------|
E|-------------------|------------------------------------|


e|----8--------6-----1-----------------------------|
B|-9----9--------8-----3---3-4---4---11-9--8--3--4-|
G|-10--------------------3-----5-----------8--3--5-|  End intro
D|-10--------8-----------------------------8--3--5-|
A|-8-------6-------------------------------6--1--3-|
E|-------------------------------------------------|

verse:(played as a reggae rhythem)*listen to song*
            
e|-4---4-8---8-6--6--6-6-|-4---4-8---8-8--8---8----8--8-|
B|-4---4-8---8-6--6--6-6-|-4---4-8---8-9--9---9----9--9-|
G|-5---5-9---9-7--7--7-7-|-5---5-9---9-10-10--10---10-10|  X's 6
D|-----------------------|------------------------------|
A|-----------------------|------------------------------|
E|-----------------------|------------------------------|

chorus:(played fast)
[ Tab from: http://www.guitartabs.cc/tabs/m/matisyahu/king_without_a_crown_tab_ver_4.html ]
e|-------4-4-4---4-3-3-3------------------------------3-3-3-3-|
B|-6-6-6-------6---------4-4-4\3-3-3-3-6-6-6-3--4-4-4---------|
G|------------------------------------------------------------|  X's 2
D|------------------------------------------------------------|
A|------------------------------------------------------------|
E|------------------------------------------------------------|



e|-3/4-4-4-8-8-8-4-8-6-6-6-----------------6-6-6---6--------------------|
B|-------------------------8-8-8-8p6-6-6-6-------6---8-8-8-4-4-4-4/6-6-6|
G|----------------------------------------------------------------------|
D|----------------------------------------------------------------------|
A|----------------------------------------------------------------------|
E|----------------------------------------------------------------------|


e|-4-4-4---4-3-3-3------------------------------|
B|-------6---------4-4-4-4\3-3-3-3-6-3-4~~~~~---|
G|----------------------------------------------|   end chorus
D|----------------------------------------------|   back to verse
A|----------------------------------------------|
E|----------------------------------------------|


SORRY FOR NOT KNOWING THE SOLO, STILL LEARNING IT.........

riff1
e|--------------------------------------------------------| X's 6
B|-9---9----8--8--8----3--3----4---4--4--~~~~~~~~---------|
G|-10--10---8--8--8----3--3----5---5--5-------------------|   then chorus
D|-10--10---8--8--8----3--3----5---5--5-------------------|   again, and 
A|-8---8----6--6--6----1--1----3---3--3-------------------|   end song w/
E|--------------------------------------------------------|   riff 1 X's 2







SONG LAYOUT:

INTRO (X1)
VERSE (X6)
CHORUS (X1)
VERSE (X6)
CHORUS (X1)
SOLO ??????????????????
RIFF 1 (x6)
CHORUS (X1)
RIFF 1 (X2)