Matisyahu - King Without A Crown Chords & Tabs

 

King Without A Crown Chords & Tabs

Matisyahu Chords & Tabs

Version: 3 Type: Tab

King Without A Crown Tab

sorry...no crazy wailing guitar solo tabs, just what other people messsed up
the second part of the main riff differs...so..just fool around with it, its not
hard..and im sure your not dumb..maybe?

happy playing

Main Riff
e----4---4---3---3---1---1---1---1--|
B----4---4---4---4---1---1---1---1--|
G----5---5---5---5---1---1---1---1--|
D-----------------------------------|
A-----------------------------------|
E-----------------------------------|

e----4---4---3---3---8---8---8---8--|-3~-----------|
B----4---4---4---4---8---8---8---8--|-4~-let ring--|
G----5---5---5---5---8---8---8---8--|-5~-----------|
D-----------------------------------|--------------|
A-----------------------------------|--------------|
E-----------------------------------|--------------|



Guitar riff 2
e-----------------------------------------------------------------------------|
b----------10-10-10---10-9-9-9-------9---------7-7-7-----------9-9-9----------|
g-11-11-11----------11---------9-9-9---9-8-8-8-------8-8-9-9-9-------9-9-9----|
d-----------------------------------------------------------------------------|
a-----------------------------------------------------------------------------|
e-----------------------------------------------------------------------------|
[ Tab from: http://www.guitartabs.cc/tabs/m/matisyahu/king_without_a_crown_tab_ver_3.html ]
e-----------------------------------------------------------------------------|
b----------10-10-10---10-9-9-9-------9---------7-7-7-----------9-9-9----------|
g-11-11-11----------11---------9-9-9---9-8-8-8-------8-8-9-9-9-------9-9-9----|
d-----------------------------------------------------------------------------|
a-----------------------------------------------------------------------------|
e-----------------------------------------------------------------------------|

e----------9-9-9----9-7-7-7-------9---------9-9-9-----------------------------|
b-10-10-10-------10---------9-9-9---9-7-7-7-------7-7-9-9-9-------------------|
g-----------------------------------------------------------9-9-9-------------|
d-----------------------------------------------------------------------------|
a-----------------------------------------------------------------------------|
e-----------------------------------------------------------------------------|

e-----------------------------------------------------------------------------|
b----------10-10-10---10-9-9-9-------9---------7-7-7-----------9-9-9----------|
g-11-11-11----------11---------9-9-9---9-8-8-8-------8-8-9-9-9-------9-9-9----|
d-----------------------------------------------------------------------------|
a-----------------------------------------------------------------------------|
e-----------------------------------------------------------------------------|