Matisyahu - Got No Water Chords & Tabs

 

Got No Water Chords & Tabs

Matisyahu Chords & Tabs

Version: 1 Type: Tab 0 ratings
1 star 2 stars 3 stars 4 stars 5 stars
comments

Got No Water Tab

   
Matisyahu
Got No Water



Verse:

    D#m      F#     G#
e----6---6---6---6---4---4---4---4---|
B----7---7---5---5---4---4---4---4---|
G----8---8---6---6---5---5---5---5---|
D------------------------------------|
A------------------------------------|
E------------------------------------|



Chorus:
[ Tab from: http://www.guitartabs.cc/tabs/m/matisyahu/got_no_water_tab.html ]
    D#m      F#     G#
e----6---6---6---6---4---4---4---4---|
B----7---7---5---5---4---4---4---4---|
G----8---8---6---6---5---5---5---5---|
D------------------------------------|
A------------------------------------|
E------------------------------------|

    D#m      F#      Fm     C#m Fm
e----6---6---6---6---8---8---9---8---|
B----7---7---5---5---9---9---9---9---|
G----8---8---6---6---10--10--10- 10--|    
D------------------------------------|
A------------------------------------|
E------------------------------------|
Comments