Matches The - The Restless Chords & Tabs

 

The Restless Chords & Tabs

Matches The Chords & Tabs

Version: 1 Type: Tab 0 ratings
1 star 2 stars 3 stars 4 stars 5 stars
comments

The Restless Tab

F||--------------------------------------|
C||-----------0--------------------------|
F||--0--0--0--0--0--0--0--0--0--0--0--0--|
D||--3--3--3--3--3--3--3--3--3--3--5/-7--|
A||--------------------------------------|
E||--------------------------------------|


                                         
-----------0----------------------------|
--0--------0----------------------------|
--0--0--0--0--0--0--0--0--0--0--0---0---|
--7/-8--8--8--8--8--8--8--8--8--10/-12--|
----------------------------------------|
----------------------------------------|


                                                                            
--------------0--------------------------|--7--7--7--7--7--7--7--7--7------|
--0-----------0--------------------------|--0--0--0--0--0--0--0--0--0------|
--0---0---0---0--0--0--0--0--0--0--0--0--|--7--7--7--7--7--7--7--7--7------|
--10--10--10--7--7--7--7--7--7--7--8--7--|--5--5--5--5--5--5--5--5--5------|
-----------------------------------------|---------------------------------|
-----------------------------------------|---------------------------------|


                                                                                
--0-----------------------------------|-----------0----------------------------|
--0--------0--------------------------|--0--------0--------0-------------------|
--0--0--0--0--0--0--0--0--0--0--0--0--|--0--0--0--0--0--0--0--0--0--0--0---0---|
--3--3--3--3--3--3--3--3--3--3--5/-7--|--7/-8--8--8--8--8--8--8--8--8--10/-12--|
--------------------------------------|----------------------------------------|
--------------------------------------|----------------------------------------|




                                          
--------------0--------------------------|
--0-----------0--------0-----------------|
--0---0---0---0--0--0--0--0--0--0--0--0--|
--10--10--10--7--7--7--7--7--7--7--8--7--|
-----------------------------------------|
-----------------------------------------|


                                                               
--7--7--7--7--7--7--7--7--7--7--7--7--|-------0---------0-----|
--0--0--0--0--0--0--0--0--0--0--0--0--|-------0---------0-----|
--7--7--7--7--7--7--7--7--7--7--7--7--|--------------4-----4/-|
--5--5--5--5--5--5--5--5--5--5--5--5--|--3--------------------|
--------------------------------------|-----------------------|
--------------------------------------|-----------------------|


                                                                     


-------0---------------------|--------------------------------------|
-------0----5h-7h-5--4----0--|--------------------------------------|
--5--------------------------|--9--9--9--9--9--9--9--9--9--9--9--9--|
-----------------------------|--------------------------------------|
-----------------------------|--5--5--5--5--5--5--5--5--5--5--5--5--|
-----------------------------|--------------------------------------|


                                                               
--------------------------------------|-------0---------0-----|
--------------------------------------|-------0---------0-----|
--7--7--7--7--7--7--7--7--7--7--7--7--|--------------4-----4/-|
--------------------------------------|--3--------------------|
--3--3--3--3--3--3--3--3--3--3--3--3--|-----------------------|
--------------------------------------|-----------------------|


                                                                       
--------0----------------------|--------------------------------------|
-----0--0--0--5h-7h-5--4----0--|--------------------------------------|
--5----------------------------|--9--9--9--9--9--9--9--9--9--9--9--9--|
-------------------------------|--------------------------------------|
-------------------------------|--5--5--5--5--5--5--5--5--5--5--5--5--|
-------------------------------|--------------------------------------|


                                                                
--------------------------------------|-------0----0-----0-----|
--------------------------------------|-------2----2--0--0-----|
--7--7--7--7--7--7--7--7--7--7--7--7--|--2----2----------2--2/-|
--------------------------------------|------------------------|
--3--3--3--3--3--3--3--3--3--3--3--3--|------------------------|
--------------------------------------|------------------------|



                                                                        
--------0-----------------------|--------------------------------------|
-----0--0--0--9h-10h-9--7----0--|--------------------------------------|
--5-----------------------------|--9--9--9--9--9--9--9--9--9--9--9--9--|
--------------------------------|--------------------------------------|
--------------------------------|--5--5--5--5--5--5--5--5--5--5--5--5--|
--------------------------------|--------------------------------------|


                                                                 
--------------------------------------|-------0-----0-----0-----|
--------------------------------------|-------2--2--2--0--0-----|
--7--7--7--7--7--7--7--7--7--7--7--7--|--2----2-----------2--2/-|
--------------------------------------|-------------------------|
--3--3--3--3--3--3--3--3--3--3--3--3--|-------------------------|
--------------------------------------|-------------------------|


                                                                       


--------0----------------------|--------------------------------------|
-----0--0--0--5h-7h-5--4----0--|--------------------------------------|
--5----------------------------|--9--9--9--9--9--9--9--9--9--9--9--9--|
-------------------------------|--------------------------------------|
-------------------------------|--5--5--5--5--5--5--5--5--5--5--5--5--|
-------------------------------|--------------------------------------|


                                                                         
--------------------------------------------------|------------4--------|
--------------------------------------------------|------5--7-----------|
--11--11--11--11--11--11--11--11--11--11--11--11--|---------------------|
--------------------------------------------------|---------------------|
--7---7---7---7---7---7---7---7---7---7---7---7---|---------------------|
--------------------------------------------------|---------------------|


                                                                    
------------4----7----|---------------------|----------------------|
------5--7------------|--5------------5--5--|--5----4--------------|
----------------------|---------------------|------------7----8----|
----------------------|---------------------|----------------------|
----------------------|---------------------|----------------------|
----------------------|---------------------|----------------------|




                                                                     
-------------4--------|------------4----7----|----------------------|
-------5--7-----------|------5--7------------|--5----------5--4--4--|
--9-------------------|----------------------|----------------------|
----------------------|----------------------|----------------------|
----------------------|----------------------|----------------------|
----------------------|----------------------|----------------------|



                                                               
-----------------------|--0-----------------------------------|
--5--5--4----5----7----|--0-----------------------------------|
-----------------------|--0--0--0--0--0--0--0--0--0--0--0--0--|
-----------------------|--3--3--3--3--3--3--3--3--3--3--5/-7--|
-----------------------|--------------------------------------|
-----------------------|--------------------------------------|


                                         

-----------0----------------------------|
--0--------0----------------------------|
--0--0--0--0--0--0--0--0--0--0--0---0---|
--7/-8--8--8--8--8--8--8--8--8--10/-12--|
----------------------------------------|
----------------------------------------|


                                          
--------------0--------------------------|
--0-----------0--------------------------|
--0---0---0---0--0--0--0--0--0--0--0--0--|
--10--10--10--7--7--7--7--7--7--7--8--7--|
-----------------------------------------|
-----------------------------------------|




                                                                               
--7--7--7--7--7--7--7--7--7-----------|--0------------------------------------|
--0--0--0--0--0--0--0--0--0-----------|--0--------0---------------------------|
--7--7--7--7--7--7--7--7--7-----------|--0--0--0--0--0--0--0--0--0--0--0/-0---|
--5--5--5--5--5--5--5--5--5--5h-7h-5--|--7--7--7--7--7--7--7--7--7--7--8--10--|
--------------------------------------|---------------------------------------|
--------------------------------------|---------------------------------------|



                                                   
--0-----------0-------------------------------0---|
--0---0-------0-----------0-----------0-------0---|
--0h--0---0---0---0---0---0---0---0---0---0---0---|
--10h-12--12--12--12--12--10h-12--12--12--12/-12--|
--------------------------------------------------|
--------------------------------------------------|



                                                   
--12--12--12--7---7---7---12--12--12--14--14--14--|
--0---0---0---0---0---0---0---0---0---0---0---0---|
--0---0---0---0---0---0---0---0---0---0---0---0---|
--15--15--15--10--10--10--15--15--15--17--17--17--|
--------------------------------------------------|
--------------------------------------------------|



                                                                           
--11--11--11--11--11--11--11--11--11--11--11--11--|-------0---------0-----|
--0---0---0---0---0---0---0---0---0---0---0---0---|-------0---------0-----|
--------------------------------------------------|--------------4-----4/-|
--14--14--14--14--14--14--14--14--14--14--14--14--|--3--------------------|
--------------------------------------------------|-----------------------|
--------------------------------------------------|-----------------------|


                                                                     
-------0---------------------|--------------------------------------|
-------0----5h-7h-5--4----0--|--------------------------------------|
--5--------------------------|--9--9--9--9--9--9--9--9--9--9--9--9--|
-----------------------------|--------------------------------------|
-----------------------------|--5--5--5--5--5--5--5--5--5--5--5--5--|
-----------------------------|--------------------------------------|


                                                               
--------------------------------------|-------0---------0-----|
--------------------------------------|-------0---------0-----|
--7--7--7--7--7--7--7--7--7--7--7--7--|--------------4-----4/-|
--------------------------------------|--3--------------------|
--3--3--3--3--3--3--3--3--3--3--3--3--|-----------------------|
--------------------------------------|-----------------------|


                                                                       
--------0----------------------|--------------------------------------|
-----0--0--0--5h-7h-5--4----0--|--------------------------------------|
--5----------------------------|--9--9--9--9--9--9--9--9--9--9--9--9--|
-------------------------------|--------------------------------------|
-------------------------------|--5--5--5--5--5--5--5--5--5--5--5--5--|
-------------------------------|--------------------------------------|

[ Tab from: http://www.guitartabs.cc/tabs/m/matches_the/the_restless_tab.html ]
                                                                
--------------------------------------|-------0----0-----0-----|
--------------------------------------|-------2----2--0--0-----|
--7--7--7--7--7--7--7--7--7--7--7--7--|--2----2----------2--2/-|
--------------------------------------|------------------------|
--3--3--3--3--3--3--3--3--3--3--3--3--|------------------------|
--------------------------------------|------------------------|


                                                                        
--------0-----------------------|--------------------------------------|
-----0--0--0--9h-10h-9--7----0--|--------------------------------------|
--5-----------------------------|--9--9--9--9--9--9--9--9--9--9--9--9--|
--------------------------------|--------------------------------------|
--------------------------------|--5--5--5--5--5--5--5--5--5--5--5--5--|
--------------------------------|--------------------------------------|


                                                                 
--------------------------------------|-------0-----0-----0-----|
--------------------------------------|-------2--2--2--0--0-----|
--7--7--7--7--7--7--7--7--7--7--7--7--|--2----2-----------2--2/-|
--------------------------------------|-------------------------|
--3--3--3--3--3--3--3--3--3--3--3--3--|-------------------------|
--------------------------------------|-------------------------|


                                                                       
--------0----------------------|--------------------------------------|
-----0--0--0--5h-7h-5--4----0--|--------------------------------------|
--5----------------------------|--9--9--9--9--9--9--9--9--9--9--9--9--|
-------------------------------|--------------------------------------|
-------------------------------|--5--5--5--5--5--5--5--5--5--5--5--5--|
-------------------------------|--------------------------------------|




                                                                         
--------------------------------------------------|------------4--------|
--------------------------------------------------|------5--7-----------|
--11--11--11--11--11--11--11--11--11--11--11--11--|---------------------|
--------------------------------------------------|---------------------|
--7---7---7---7---7---7---7---7---7---7---7---7---|---------------------|
--------------------------------------------------|---------------------|




                                                                    
------------4----7----|---------------------|----------------------|
------5--7------------|--5------------5--5--|--5----4--------------|
----------------------|---------------------|------------7----8----|
----------------------|---------------------|----------------------|
----------------------|---------------------|----------------------|
----------------------|---------------------|----------------------|


                                                                     
-------------4--------|------------4----7----|----------------------|
-------5--7-----------|------5--7------------|--5----------5--4--4--|
--9-------------------|----------------------|----------------------|
----------------------|----------------------|----------------------|
----------------------|----------------------|----------------------|
----------------------|----------------------|----------------------|


                                                                       
-----------------------|------|------|----------------|---------------|
--5--5--4----5----7----|------|------|----------------|---------------|
-----------------------|------|------|----------------|---------------|
-----------------------|------|------|----------------|---------------|
-----------------------|------|------|--5----5--------|---------------|
-----------------------|------|------|----------------|----------6----|


                                                                  
----------------|---------------|----------------|---------------|
----------------|---------------|----------------|---------------|
----------------|---------------|----------------|---------------|
----------------|---------------|----------------|---------------|
--5----5--------|---------------|--5----5--------|---------------|
----------------|----------6----|----------------|----------6----|


                                                                  
----------------|---------------|----------------|---------------|
----------------|---------------|----------------|---------------|
----------------|---------------|----------------|---------------|
----------------|---------------|----------------|---------------|
--5----5--------|---------------|--5----5--------|---------------|
----------------|----------6----|----------------|----------6----|


                                                                  
----------------|---------------|----------------|---------------|
----------------|---------------|----------------|---------------|
----------------|---------------|----------------|---------------|
----------------|---------------|----------------|---------------|
--5----5--------|---------------|--5----5--------|---------------|
----------------|----------6----|----------------|----------6----|


                                                                                
----------------|---------------|--------------|--------------|----------------|
----------------|---------------|--------------|--------------|----------------|
----------------|---------------|--------------|--------------|----------------|
----------------|---------------|--------------|--------------|----------------|
--5----5--------|---------------|--------------|--------------|--5----5--------|
----------------|----------6----|--------------|--------------|----------------|


                                                        
--------------|--------------------|-------------------|
--------------|--------------------|-------------------|
--------------|--------------------|-------------------|
--------------|--------------------|--------------8----|
--------------|--5----5------------|-------------------|
--------------|--------------------|--------------6----|


                                                                              
--------------------------|--------------------------------------------------|
--------------------------|--------------------------------------------------|
--------------------------|--------------------------------------------------|
--10----10----10----10----|--10--10--10--10--10--10--10--10--10--10--10--10--|
--------------------------|--10--10--10--10--10--10--10--10--10--10--10--10--|
--8-----8-----8-----8-----|--8---8---8---8---8---8---8---8---8---8---8---8---|


                                                                            
-------------------------|----------------------|--------------------------|
-------------------------|----------------------|--------------------------|
------3--------7---------|--8----7----5---------|--------------------------|
--3-5------3-5------3----|-----------------2----|--3-------------3---------|
-------------------------|----------------------|-------3--3--3-------4----|
-------------------------|----------------------|--------------------------|




                                          
-----------8--8--8--7--7--7--12--12--12--|
-----------8--8--8--7--7--7--12--12--12--|
-----------------------------7---7---7---|
-----------------------------------------|
--3--3--3--------------------------------|
-----------------------------------------|


                                                   
--12--12--12--12--12--12--12--12--12--12--12--12--|
--12--12--12--12--12--12--8---8---8---12--12--12--|
--7---7---7---7---7---7---8---8---8---7---7---7---|
--------------------------------------------------|
--------------------------------------------------|
--------------------------------------------------|


                                                                       
--12--12--12--12--12--12--12--12--12--12--12--12--|-------------------|
--8---8---8---10--10--10--8---8---8---12--12--12--|-------------------|
--8---8---8---10--10--10--8---8---8---7---7---7---|-------------------|
--------------------------------------------------|-------------------|
--------------------------------------------------|--3b---------------|
--------------------------------------------------|-------------------|




                                                                               
-------------------|--------------------|------------------|------------------|
-------------------|--------------------|------------------|------------------|
-------------------|--10b---------------|------------------|------------------|
-------------------|--------------------|------------------|------------------|
--3----------------|--------------------|------------------|------------------|
-------------------|--------------------|------------------|------------------|



                                                                   
------------4--------|------------4----7----|---------------------|
------5--7-----------|------5--7------------|--5------------5--5--|
---------------------|----------------------|---------------------|
---------------------|----------------------|---------------------|
---------------------|----------------------|---------------------|
---------------------|----------------------|---------------------|


                                                                     
----------------------|-------------4--------|------------4----7----|
--5----4--------------|-------5--7-----------|------5--7------------|
------------7----8----|--9-------------------|----------------------|
----------------------|----------------------|----------------------|
----------------------|----------------------|----------------------|
----------------------|----------------------|----------------------|


                                                                     
----------------------|-----------------------|------------4--------|
--5----------5--4--4--|--5--5--4----5----7----|------5--7-----------|
----------------------|-----------------------|---------------------|
----------------------|-----------------------|---------------------|
----------------------|-----------------------|---------------------|
----------------------|-----------------------|---------------------|


                                                                    
------------4----7----|---------------------|----------------------|
------5--7------------|--5------------5--5--|--5----4--------------|
----------------------|---------------------|------------7----8----|
----------------------|---------------------|----------------------|
----------------------|---------------------|----------------------|
----------------------|---------------------|----------------------|


                                                                     
-------------4--------|------------4----7----|----------------------|
-------5--7-----------|------5--7------------|--5----------5--4--4--|
--9-------------------|----------------------|----------------------|
----------------------|----------------------|----------------------|
----------------------|----------------------|----------------------|
----------------------|----------------------|----------------------|


                         
-----------------------||
--5--5--4----5----7----||
-----------------------||
-----------------------||
-----------------------||
-----------------------||



You better love it Ruben
Comments