Matches The - Sick Little Suicide Chords & Tabs

 

Sick Little Suicide Chords & Tabs

Matches The Chords & Tabs

Version: 1 Type: Tab 1 rating
1 star 2 stars 3 stars 4 stars 5 stars
comments

Sick Little Suicide Tab

ok the songs i did are all of them jk only Audio Blood, Chain me free ,destination..., dog-earred Page, The RESTLESS, AND this one SICK LITTLE SuiCIDe so LOVE it


E||------|------|---------------------|---------------------|
B||------|------|---------------------|---------------------|
G||------|------|---------------------|---------------------|
D||------|------|---------------------|---------------------|
A||------|------|---------------------|--3------------------|
E||------|------|--0--------2----3----|-----------2----3----|


                                                                              
---------------------|--------------------|----------------------------------|
---------------------|--------------------|------------------12--------------|
---------------------|--------------------|----------------------12--14--11--|
---------------------|--------------------|----14-14-14-14-------------------|
---------------------|--3--------5--------|----------------------------------|
--0--------2----3----|--------------------|----------------------------------|



                                                                      
------------------------------12--|----------------------------------|
------------------12--------------|------------------12--------------|
----------------------12--14------|----------------------12--14--11--|
----14-14-14-14-------------------|----14-14-14-14-------------------|
----------------------------------|----------------------------------|
----------------------------------|----------------------------------|


                                                                               
------12-----12-----12-----12---------|--12----------------|------------------|
--------------------------------------|--------------------|------------------|
--------------------------------------|--------------------|------------------|
--14------14-----14-----14------12h14-|--------------------|------------------|
--------------------------------------|--------------------|------------------|
--------------------------------------|--------------------|------------------|


                                                                      
------------------|-------------------|------------------------------|
------------------|-------------------|------------------------------|
------------------|----------------7/-|--9--9--9--9--11--11--12--12--|
------------------|-------------------|------------------------------|
------------------|----------------5/-|--7--7--7--7--9---9---10--10--|
------------------|-------------------|------------------------------|


                                                                    
----------------------------------|--------------------------------|
--13--13--13--13--12--12--10--10/-|--12--12--12--12--10--10--8--8--|
----------------------------------|--------------------------------|
--10--10--10--10--9---9---7---7/--|--9---9---9---9---7---7---5--5--|
----------------------------------|--------------------------------|
----------------------------------|--------------------------------|




                                                                               
----------------------|---------------------------|---------------------------|
--10--------8----7----|---------------------------|---------------------------|
----------------------|---------------------------|--5--5---------------------|
--7---------5----4----|--2--2-------4-4-4-4-5-5-5-|--5--5-------4-4-4-4-5-5-5-|
----------------------|--2--2-------5-5-5-5-5-5-5-|--3--3-------5-5-5-5-5-5-5-|
----------------------|--0--0-------2-2-2-2-3-3-3-|-------------2-2-2-2-3-3-3-|


                                                            
---------------------------|-------------------------------|
---------------------------|-------------------------------|
---------------------------|--5--5--5-5-5-5--7-7-7-7-9-9-7-|
--2--2-------4-4-4-4-5-5-5-|--5--5--5-5-5-5----------------|
--2--2-------5-5-5-5-5-5-5-|--3--3--3-3-3-3--5-5-5-5-7-7-5-|
--0--0-------2-2-2-2-3-3-3-|-------------------------------|


                                                                       
---------------------------------|------------------------------------|
---------------------------------|---------------12-12-12-12-10-10/12-|
--9--9-------11-11-11-11-12-12---|--9---9-----------------------------|
---------------------------------|--10--10-------9--9--9--9--7--7/-9--|
--7--7-------9--9--9--9--10-10-7-|--7---7-----------------------------|
--0--0---------------------------|------------------------------------|


                                                                 
----------------------------------|-----------------------------|
--12--12-------10-10-10-10-8-8/10-|--10---8---7---7-7-7-7-8-8-8-|
----------------------------------|-----------------------------|
--9---9--------7--7--7--7--5-5/7--|--7----5---4---4-4-4-4-5-5-5-|
----------------------------------|-----------------------------|
----------------------------------|-----------------------------|



                                                                           
------------------------|------------------------|------------------------|
------------------------|------------------------|------------------------|
------------------------|----2--2--4--4--5--5----|------------------------|
----2--2--4--4--5--5----|----2--2--4--4--5--5----|----2--2--4--4--5--5----|
----2--2--4--4--5--5----|----0--0--2--2--3--3----|----2--2--4--4--5--5----|
----0--0--2--2--3--3----|------------------------|----0--0--2--2--3--3----|


                                                                               

----------------------------|------------------------|------------------------|
----------------------------|------------------------|------------------------|
----9--9--11--11--12--12----|------------------------|----2--2--4--4--5--5----|
----------------------------|----2--2--4--4--5--5----|----2--2--4--4--5--5----|
----7--7--9---9---10--10----|----2--2--4--4--5--5----|----0--0--2--2--3--3----|
----------------------------|----0--0--2--2--3--3----|------------------------|




                                                                                
------------------------|----------------------------|-------------------------|
------------------------|----------------------------|-------------------------|
------------------------|----9--9--11--11--12--12----|-------------------------|
----2--2--4--4--5--5----|----------------------------|----2--2--4--4--5--5-----|
----2--2--4--4--5--5----|----7--7--9---9---10--10----|----2--2--4--4--5--5-----|
----0--0--2--2--3--3----|----------------------------|----0--0--2--2--3--3--0--|


                                                               


---------------------------|----------------------------------|
---------------------------|------------------12--------------|
--7-7-7-7-7-7-7-7-7--------|----------------------12--14--11--|
---------------------------|----14-14-14-14-------------------|
--5-5-5-5-5-5-5-5-5--------|----------------------------------|
---------------------------|----------------------------------|


                                                                       
-------------------------------12--|----------------------------------|
------------------12---------------|------------------12--------------|
----------------------12h14--x-----|----------------------12--14--11--|
----14-14-14-14--------------------|----14-14-14-14-------------------|
-----------------------------------|----------------------------------|
-----------------------------------|----------------------------------|


                                                                        
--------12-----12---------------------------------|--------------------|
--------------------15-13-12-13h12----12----------|--------------------|
-----------------------------------14----14r---12-|--------------------|
--12h14-----14------------------------------------|--14----------------|
--------------------------------------------------|--------------------|
--------------------------------------------------|--------------------|



                                                          
------------------|------------------|-------------------|
------------------|------------------|-------------------|
------------------|------------------|----------------7/-|
------------------|------------------|-------------------|
------------------|------------------|----------------5/-|
------------------|------------------|-------------------|


                                                                  
------------------------------|----------------------------------|
------------------------------|--13--13--13--13--12--12--10--10/-|
--9--9--9--9--11--11--12--12--|----------------------------------|
------------------------------|--10--10--10--10--9---9---7---7/--|
--7--7--7--7--9---9---10--10--|----------------------------------|
------------------------------|----------------------------------|


                                                        
--------------------------------|----------------------|
--12--12--12--12--10--10--8--8--|--10--------8----7----|
--------------------------------|----------------------|
--9---9---9---9---7---7---5--5--|--7---------5----4----|
--------------------------------|----------------------|
--------------------------------|----------------------|


                                                        
---------------------------|---------------------------|
---------------------------|---------------------------|
---------------------------|--5--5---------------------|
--2--2-------4-4-4-4-5-5-5-|--5--5-------4-4-4-4-5-5-5-|
--2--2-------5-5-5-5-5-5-5-|--3--3-------5-5-5-5-5-5-5-|
--0--0-------2-2-2-2-3-3-3-|-------------2-2-2-2-3-3-3-|


                                                            


---------------------------|-------------------------------|
---------------------------|-------------------------------|
---------------------------|--5--5--5-5-5-5--7-7-7-7-9-9-7-|
--2--2-------4-4-4-4-5-5-5-|--5--5--5-5-5-5----------------|
--2--2-------5-5-5-5-5-5-5-|--3--3--3-3-3-3--5-5-5-5-7-7-5-|
--0--0-------2-2-2-2-3-3-3-|-------------------------------|




                                                                       
---------------------------------|------------------------------------|
---------------------------------|---------------12-12-12-12-10-10/12-|
--9--9-------11-11-11-11-12-12---|--9---9-----------------------------|
---------------------------------|--10--10-------9--9--9--9--7--7/-9--|
--7--7-------9--9--9--9--10-10-7-|--7---7-----------------------------|
--0--0---------------------------|------------------------------------|


                                                                 


----------------------------------|-----------------------------|
--12--12-------10-10-10-10-8-8/10-|--10---8---7---7-7-7-7-8-8-8-|
----------------------------------|-----------------------------|
--9---9--------7--7--7--7--5-5/7--|--7----5---4---4-4-4-4-5-5-5-|
----------------------------------|-----------------------------|
----------------------------------|-----------------------------|


                                                                           
------------------------|------------------------|------------------------|
------------------------|------------------------|------------------------|
------------------------|----2--2--4--4--5--5----|------------------------|
----2--2--4--4--5--5----|----2--2--4--4--5--5----|----2--2--4--4--5--5----|
----2--2--4--4--5--5----|----0--0--2--2--3--3----|----2--2--4--4--5--5----|
----0--0--2--2--3--3----|------------------------|----0--0--2--2--3--3----|

[ Tab from: http://www.guitartabs.cc/tabs/m/matches_the/sick_little_suicide_tab.html ]
                                                                               
----------------------------|------------------------|------------------------|
----------------------------|------------------------|------------------------|
----9--9--11--11--12--12----|------------------------|----2--2--4--4--5--5----|
----------------------------|----2--2--4--4--5--5----|----2--2--4--4--5--5----|
----7--7--9---9---10--10----|----2--2--4--4--5--5----|----0--0--2--2--3--3----|
----------------------------|----0--0--2--2--3--3----|------------------------|


                                                                                
------------------------|----------------------------|-------------------------|
------------------------|----------------------------|-------------------------|
------------------------|----9--9--11--11--12--12----|-------------------------|
----2--2--4--4--5--5----|----------------------------|----2--2--4--4--5--5-----|
----2--2--4--4--5--5----|----7--7--9---9---10--10----|----2--2--4--4--5--5-----|
----0--0--2--2--3--3----|----------------------------|----0--0--2--2--3--3--0--|


                                                               
---------------------------|----------------------------------|
---------------------------|------------------12--------------|
--7-7-7-7-7-7-7-7-7--------|----------------------12--14--11--|
---------------------------|----14-14-14-14-------------------|
--5-5-5-5-5-5-5-5-5--------|----------------------------------|
---------------------------|----------------------------------|


                                                                      
------------------------------12--|----------------------------------|
------------------12--------------|------------------12--------------|
----------------------12--14------|----------------------12--14--11--|
----14-14-14-14-------------------|----14-14-14-14-------------------|
----------------------------------|----------------------------------|
----------------------------------|----------------------------------|


                                   
------12-----12-----12-----12-----|
----------------------------------|
----------------------------------|
--14------14-----14-----14--------|
----------------------------------|
----------------------------------|


                                               


----------------------------------------------|
--------------12--------------------12--------|
----------------------------------------------|
--14-14-14-14-----14-14-14-14-14-14-----14-14-|
----------------------------------------------|
----------------------------------------------|


                                               
----------------------------------------------|
--------------12--------------------12--------|
----------------------------------------------|
--14-14-14-14-----14-14-14-14-14-14-----14-14-|
----------------------------------------------|
----------------------------------------------|


                                           
------------------------------------------|
--------------12--------------------12----|
------------------------------------------|
--14-14-14-14-----14-14-14-14-14-14-------|
------------------------------------------|
------------------------------------------|


                                        
---------------------------------------|
--12h13h12----12-13-12----12-----------|
-----------14----------14----14b-------|
---------------------------------------|
---------------------------------------|
---------------------------------------|


                                                                        
-----------------------------------------------------------------------|
-----------------------------------------------12-12-12-12-15-12----12-|
--------------------11-11-11-12-12-12-14-14-14-------------------14----|
--10-10-10-12-12-12----------------------------------------------------|
-----------------------------------------------------------------------|
-----------------------------------------------------------------------|


                                               
-------12-15-12----12-17--15-17h15----15-17b--|
--15b-----------15-----------------17---------|
----------------------------------------------|
----------------------------------------------|
----------------------------------------------|
----------------------------------------------|


                                     


--17b-17b-17h15----15-----15-15-----|
----------------17-----17-----------|
------------------------------------|
------------------------------------|
------------------------------------|
------------------------------------|


                                                               
--19h17h15-19h17h15-19h17h15-19h17h15-20h17h15-20h17h15-15----|
--------------------------------------------------------------|
--------------------------------------------------------------|
--------------------------------------------------------------|
--------------------------------------------------------------|
--------------------------------------------------------------|


                                                                        
--19-19-19-20-20-20-19-19-19-20-20-20-22-22-22-20-20-20-19h20h19----19-|
-----------------------------------------------------------------22----|
-----------------------------------------------------------------------|
-----------------------------------------------------------------------|
-----------------------------------------------------------------------|
-----------------------------------------------------------------------|


                                                                


--22b-22b-22r19----19-22b-22b-22r19----19-|--22b---------------|
----------------22------------------22----|--------------------|
------------------------------------------|--------------------|
------------------------------------------|--------------------|
------------------------------------------|--------------------|
------------------------------------------|--------------------|


                                                             
------------------|------------------|----------------------|
------------------|------------------|----------------------|
------------------|------------------|----------------------|
------------------|------------------|----------------12h14-|
------------------|------------------|----------------------|
------------------|------------------|----------------------|


                                                                 
--------------------|----------------------|--------------------|
--12----------------|----------------------|--12----------------|
--------------------|----------------------|--------------------|
--------------------|----------------12h14-|--------------------|
--------------------|----------------------|--------------------|
--------------------|----------------------|--------------------|




                                                                 
----------------------|--------------------|--------------------|
----------------------|--12----------------|--13----------------|
----------------------|--------------------|--------------------|
----------------12h14-|--------------------|--------------------|
----------------------|--------------------|--------------------|
----------------------|--------------------|--------------------|


                                                                           


------------------------|------------------------|------------------------|
--12--------------------|--13--------------------|------------------------|
------------14----12----|------------11----12----|------------------------|
------------------------|------------------------|--14--------12----------|
------------------------|------------------------|------------------15----|
------------------------|------------------------|------------------------|


                                                              
------------------------------------|------------------------|
------------------------------------|--12t-------------------|
------------------------------------|------------14----12----|
------------------------------------|------------------------|
--14h15h14h15h14h15h14h15h14--------|--14t-------------------|
------------------------------------|------------------------|


                                                                 
------------------------|--------------------|------------------|
--13--------------------|--------------------|------------------|
------------11----12----|--------------------|------------------|
------------------------|--14----------------|------------------|
------------------------|--------------------|------------------|
------------------------|--------------------|------------------|


                                                        
---------------------------|---------------------------|
---------------------------|---------------------------|
---------------------------|--5--5---------------------|
--2--2-------4-4-4-4-5-5-5-|--5--5-------4-4-4-4-5-5-5-|
--2--2-------5-5-5-5-5-5-5-|--3--3-------5-5-5-5-5-5-5-|
--0--0-------2-2-2-2-3-3-3-|-------------2-2-2-2-3-3-3-|


                                                            
---------------------------|-------------------------------|
---------------------------|-------------------------------|
---------------------------|--5--5--5-5-5-5----------------|
--2--2-------4-4-4-4-5-5-5-|--5--5--5-5-5-5--4-4-4-4-5-5-5-|
--2--2-------5-5-5-5-5-5-5-|--3--3--3-3-3-3--5-5-5-5-5-5-5-|
--0--0-------2-2-2-2-3-3-3-|-----------------2-2-2-2-3-3-3-|


                                                        
---------------------------|---------------------------|
---------------------------|---------------------------|
---------------------------|--5--5---------------------|
--2--2-------4-4-4-4-5-5-5-|--5--5-------4-4-4-4-5-5-5-|
--2--2-------5-5-5-5-5-5-5-|--3--3-------5-5-5-5-5-5-5-|
--0--0-------2-2-2-2-3-3-3-|-------------2-2-2-2-3-3-3-|


                                                            
---------------------------|-------------------------------|
---------------------------|-------------------------------|
---------------------------|--5--5--5-5-5-5--7-7-7-7-9-9-7-|
--2--2-------4-4-4-4-5-5-5-|--5--5--5-5-5-5----------------|
--2--2-------5-5-5-5-5-5-5-|--3--3--3-3-3-3--5-5-5-5-7-7-5-|
--0--0-------2-2-2-2-3-3-3-|-------------------------------|


                                                                    
---------------------------------|---------------------------------|
---------------------------------|---------------------------------|
--9--9-9-9-9-9-9-9---------------|--9--9-9-9-9-9-9-9---------------|
-------------------4-4-4-4-5-5---|-------------------4-4-4-4-5-5-5-|
--7--7-7-7-7-7-7-7-5-5-5-5-5-5---|--7--7-7-7-7-7-7-7-5-5-5-5-5-5-5-|
--0--0-0-0-0-0-0-0-2-2-2-2-3-3-0-|--8--8-8-8-8-8-8-8-2-2-2-2-3-3-3-|


                                                                    
---------------------------------|---------------------------------|
---------------------------------|---------------------------------|
--9--9-9-9-9-9-9-9---------------|--9--9-9-9-9-9-9-9---------------|
-------------------4-4-4-4-5-5---|-------------------4-4-4-4-5-5-5-|
--7--7-7-7-7-7-7-7-5-5-5-5-5-5---|--7--7-7-7-7-7-7-7-5-5-5-5-5-5-5-|
--0--0-0-0-0-0-0-0-2-2-2-2-3-3-0-|--8--8-8-8-8-8-8-8-2-2-2-2-3-3-3-|


                                                                    
---------------------------------|---------------------------------|
---------------------------------|---------------------------------|
--9--9-9-9-9-9-9-9---------------|--9--9-9-9-9-9-9-9---------------|
-------------------4-4-4-4-5-5---|-------------------4-4-4-4-5-5-5-|
--7--7-7-7-7-7-7-7-5-5-5-5-5-5---|--7--7-7-7-7-7-7-7-5-5-5-5-5-5-5-|
--0--0-0-0-0-0-0-0-2-2-2-2-3-3-0-|--8--8-8-8-8-8-8-8-2-2-2-2-3-3-3-|


                                                        
---------------------------------|--------------------||
---------------------------------|--------------------||
--9--9-9-9-9-9-9-9---------------|--5--5--------------||
-------------------4-4-4-4-5-5---|--5--5--------------||
--7--7-7-7-7-7-7-7-5-5-5-5-5-5---|--3--3--------------||
--0--0-0-0-0-0-0-0-2-2-2-2-3-3-0-|--------------------||



Comments