Matches The - Dog Eared Page Chords & Tabs

 

Dog Eared Page Chords & Tabs

Matches The Chords & Tabs

Version: 1 Type: Tab 0 ratings
1 star 2 stars 3 stars 4 stars 5 stars
comments

Dog Eared Page Tab

E||--------------------------|--------------------------|
B||--------------------------|--------------------------|
G||--7--7--7--7--7--7--7--7--|--7--7--7--7--7--7--7-----|
D||--------------------------|-----------------------4--|
A||--------------------------|-----------------------4--|
E||--7--7--7--7--7--7--7--7--|--7--7--7--7--7--7--7--2--|


                                                                   
--------------------------|-------------------|-------------------|
--------------------------|-------------------|-------------------|
--------------------------|-------------------|-------------------|
--5--5--5--5--5--5--5--5--|--5----------------|----------------4--|
--5--5--5--5--5--5--5--5--|--5----------------|----------------4--|
--3--3--3--3--3--3--3--2--|--3----------------|----------------2--|


                                                                          
------------------------|------------------------|-----------------------|
------------------------|------------------------|-----------------------|
---------------------2--|--4----4----4-----4--6--|--7----7----7----7--9--|
--5----5----5--4--5--2--|------------------------|-----------------------|
--5----5----5--4--5--0--|--2----2----2h-0--2--4--|--5----5----5----5--7--|
--3----3----3--2--3-----|------------------------|-----------------------|


                                                          
-------------------|------------------|------------------|
-------------------|------------------|------------------|
-------------------|------------------|------------------|
-------------------|------------------|------------------|
------2------------|------------------|------------------|
-------------------|------------------|------------------|


                                                                        
----------------------|-----------------------|------------------------|
----------------------|-----------------------|------------------------|
----------------------|-----------------------|------------------------|
----------------------|-----------------------|------------------------|
-------------------0--|--2----2----2----2-----|---------------------0--|
----------3--2--3-----|--------------------2--|--3----3----3--2--3-----|


                                                                     
------------------------|-------------------|-----------------------|
------------------------|-------------------|-----------------------|
------------------------|-------------------|--7--7--7--7----7------|
------------------------|-------------------|-----------------------|
--2----2----2--0--2--4--|--5----------------|-----------------------|
------------------------|-------------------|-----------------------|


                                                                        
-----------------------|-----------------------|-----------------------|
-----------------------|--7--7--7--7----7------|-----------------------|
--7--7--7--7----7------|-----------------------|--7--7--7--7----7------|
-----------------------|-----------------------|-----------------------|
-----------------------|-----------------------|-----------------------|
-----------------------|-----------------------|-----------------------|


                                                                        
-----------------------|-----------------------|-----------------------|
-----------------------|-----------------------|--7--7--7--7----7------|
--7--7--7--7----7------|--7--7--7--7----7------|-----------------------|
-----------------------|-----------------------|-----------------------|
-----------------------|-----------------------|-----------------------|
-----------------------|-----------------------|-----------------------|


                                                                              
-----------------------|--------------------------|--------------------------|
-----------------------|--------------------------|--------------------------|
--7--7----6h-7----7----|--6--6--6-----7--7--7-----|--7--7--7-----9--9--9-----|
-----------------------|-----------7-----------7--|--7--7--7--7--7--7--7--7--|
-----------------------|--------------------------|--------------------------|
-----------------------|--------------------------|--------------------------|


                                                              
--------------------------|----------------------------------|
--------------8--8--8--8--|--10--10--10--10--10--10--10--10--|
--9--9--9-----------9--9--|--9---9---9---9---9---9---9---9---|
--7--7--7--7--7--7--7--7--|--7---7---7---7---7---7---7---7---|
--------------------------|----------------------------------|
--------------------------|----------------------------------|


                                                                             
--------------------------|--------------------------|----------------------|
--------------------------|--------------------------|--8----8------8----8--|
--7--7--7--7--7--7--7--6--|--6--6--6--6--6--6--6--6--|----------------------|
--------------------------|--------------------------|--5----5------5----5--|
--------------------------|--------------------------|----------------------|
--------------------------|--------------------------|----------------------|



                                                                              
-----------------------|--------------------------|--------------------------|
----8--8----8--8--8----|--------------------------|--------------------------|
-----------------------|--7--7--7--7--7--7--7--6--|--6--6--6--6--6--6--6--6--|
----5--5----5--5--5----|-----------------------4--|--4--4--4--4--4--4--4--4--|
-----------------------|--5--5--5--5--5--5--5-----|--------------------------|
-----------------------|--------------------------|--------------------------|


                                                                         
-----------------------|-----------------------|------------------------|
--8----8------7--7--8--|----8--8----8--8-------|-------7-------7--7-----|
-----------------------|-----------------------|------------------------|
--5----5------4--4--5--|----5--5----5--5-------|------------------------|
-----------------------|-----------------------|--5---------5--------4--|
-----------------------|------------------3b---|------------------------|


                                                                       
----5-------5----5----|-------7--------------|------------------------|
----------------------|----------------------|------------------------|
----------------------|--------------6----7--|----7--7--7--7--6----7--|
----------------------|----------------------|------------------------|
---------4------------|--5-----------4----5--|----5--5--5--5--4----5--|
----------------------|----------------------|------------------------|



                                                      
--------------------------|--------------------------|
--------------------------|--------------------------|
--7--7--7--7--7--7--7--7--|--7--7--7--7--7--7--7-----|
--------------------------|-----------------------4--|
--------------------------|-----------------------4--|
--7--7--7--7--7--7--7--7--|--7--7--7--7--7--7--7--2--|


                                                                       
--------------------------|-------------------|-----------------------|
--------------------------|-------------------|-----------------------|
--------------------------|-------------------|--4----4----4----4-----|
--5--5--5--5--5--5--5--5--|--5----------------|--4----4----4----4--4--|
--5--5--5--5--5--5--5--5--|--5----------------|--2----2----2----2--4--|
--3--3--3--3--3--3--3--2--|--3----------------|--------------------2--|


                                                                          
------------------------|------------------------|-----------------------|
------------------------|------------------------|-----------------------|
---------------------2--|--4----4----4-----4--6--|--7----7----7----7--9--|
--5----5----5--4--5--2--|------------------------|-----------------------|
--5----5----5--4--5--0--|--2----2----2h-0--2--4--|--5----5----5----5--7--|
--3----3----3--2--3-----|------------------------|-----------------------|




                                                                           
--------7----------------|-----------------------|------------------------|
----------------10-------|--8-------7------------|------------------------|
-------------------------|------------------9----|-----7-------6-------7--|
----7h9------9--------9--|-------9-------9-------|--9-------9-------9-----|
-------------------------|-----------------------|------------------------|
-------------------------|-----------------------|------------------------|


                                                                 
--------------------------|------------------|------------------|
--------------------------|------------------|------------------|
--------9-----7-----6-----|------------------|------------------|
--9--9-----9-----9-----9--|------------------|------------------|
--------------------------|------------------|------------------|
--------------------------|------------------|------------------|




                                                                  
------------------|----------------------|-----------------------|
------------------|----------------------|-----------------------|
------------------|----------------------|-----------------------|
------------------|----------------------|-----------------------|
------------------|-------------------0--|--2----2----2----2-----|
------------------|----------3--2--3-----|--------------------2--|


                                                                     

------------------------|------------------------|------------------|
------------------------|------------------------|------------------|
------------------------|------------------------|------------------|
------------------------|------------------------|------------------|
---------------------0--|--2----2----2--0--2--4--|------------------|
--3----3----3--2--3-----|------------------------|------------------|


                                                                        
-----------------------|-----------------------|-----------------------|
-----------------------|-----------------------|--7--7--7--7----7------|
--7--7--7--7----7------|--7--7--7--7----7------|-----------------------|
-----------------------|-----------------------|-----------------------|
-----------------------|-----------------------|-----------------------|
-----------------------|-----------------------|-----------------------|


                                                                        
-----------------------|-----------------------|-----------------------|
-----------------------|-----------------------|-----------------------|
--7--7--7--7----7------|--7--7--7--7----7------|--7--7--7--7----7------|
-----------------------|-----------------------|-----------------------|
-----------------------|-----------------------|-----------------------|
-----------------------|-----------------------|-----------------------|

[ Tab from: http://www.guitartabs.cc/tabs/m/matches_the/dog_eared_page_tab.html ]
                                                                           
-----------------------|-----------------------|--------------------------|
--7--7--7--7----7------|-----------------------|--------------------------|
-----------------------|--7--7----6h-7----7----|--6--6--6-----7--7--7-----|
-----------------------|-----------------------|-----------7-----------7--|
-----------------------|-----------------------|--------------------------|
-----------------------|-----------------------|--------------------------|


                                                      
--------------------------|--------------------------|
--------------------------|--------------8--8--8--8--|
--7--7--7-----9--9--9-----|--9--9--9-----------9--9--|
--7--7--7--7--7--7--7--7--|--7--7--7--7--7--7--7--7--|
--------------------------|--------------------------|
--------------------------|--------------------------|


                                                              
----------------------------------|--------------------------|
--10--10--10--10--10--10--10--10--|--------------------------|
--9---9---9---9---9---9---9---9---|--7--7--7--7--7--7--7--6--|
--7---7---7---7---7---7---7---7---|--------------------------|
----------------------------------|--------------------------|
----------------------------------|--------------------------|


                                                                          
--------------------------|----------------------|-----------------------|
--------------------------|--8----8------8----8--|----8--8----8--8--8----|
--6--6--6--6--6--6--6--6--|----------------------|-----------------------|
--------------------------|--5----5------5----5--|----5--5----5--5--5----|
--------------------------|----------------------|-----------------------|
--------------------------|----------------------|-----------------------|


                                                                              
--------------------------|--------------------------|-----------------------|
--------------------------|--------------------------|--8----8------7--7--8--|
--7--7--7--7--7--7--7--6--|--6--6--6--6--6--6--6--6--|-----------------------|
-----------------------4--|--4--4--4--4--4--4--4--4--|--5----5------4--4--5--|
--5--5--5--5--5--5--5-----|--------------------------|-----------------------|
--------------------------|--------------------------|-----------------------|


                                                                        
-----------------------|------------------------|----5-------5----5----|
----8--8----8--8-------|-------7-------7--7-----|----------------------|
-----------------------|------------------------|----------------------|
----5--5----5--5-------|------------------------|----------------------|
-----------------------|--5---------5--------4--|---------4------------|
------------------3b---|------------------------|----------------------|


                                                                           
-------7--------------|------------------------|--------------------------|
----------------------|------------------------|--------------------------|
--------------6----7--|----7--7--7--7--6----7--|--7--7--7--7--7--7--7--7--|
----------------------|------------------------|--------------------------|
--5-----------4----5--|----5--5--5--5--4----5--|--------------------------|
----------------------|------------------------|--7--7--7--7--7--7--7--7--|




                                                                          
--------------------------|--------------------------|-------------------|
--------------------------|--------------------------|-------------------|
--7--7--7--7--7--7--7-----|--------------------------|-------------------|
-----------------------4--|--5--5--5--5--5--5--5--5--|--5----------------|
-----------------------4--|--5--5--5--5--5--5--5--5--|--5----------------|
--7--7--7--7--7--7--7--2--|--3--3--3--3--3--3--3--2--|--3----------------|



                                                                            


------------------|------------------|------------------|------------------|
------------------|------------------|------------------|------------------|
------------------|------------------|------------------|------------------|
------------------|------------------|------------------|------------------|
------------------|------------------|------------------|------------------|
------------------|------------------|------------------|------------------|


                                                                      
-----------------------|----------------------|----------------------|
------10b-----7----10--|----8----7---------7--|-------------10-------|
-----------------------|----------------9-----|------9b-----------7--|
-----------------------|----------------------|----------------------|
-----------------------|----------------------|----------------------|
-----------------------|----------------------|----------------------|


                                                                     
------------------|-----------------------|-------------------------|
------------------|------10r-------7--10--|----8----7h8h7-----7-----|
------------------|-----------------------|----------------9-----9b-|
------------------|-----------------------|-------------------------|
------------------|-----------------------|-------------------------|
------------------|-----------------------|-------------------------|




                                                                            
---------------------------|--------------------|--------------------------|
----10-----10--------------|--------------------|--------------------------|
--------9b-----9r---7h9--7-|--------------------|--6--6--6-----7--7--7-----|
---------------------------|------9--7----------|-----------7-----------7--|
---------------------------|--------------------|--------------------------|
---------------------------|--------------------|--------------------------|


                                                      
--------------------------|--------------------------|
--------------------------|--------------8--8--8--8--|
--7--7--7-----9--9--9-----|--9--9--9-----------9--9--|
--7--7--7--7--7--7--7--7--|--7--7--7--7--7--7--7--7--|
--------------------------|--------------------------|
--------------------------|--------------------------|


                                                              
----------------------------------|--------------------------|
--10--10--10--10--10--10--10--10--|--------------------------|
--9---9---9---9---9---9---9---9---|--7--7--7--7--7--7--7--6--|
--7---7---7---7---7---7---7---7---|--------------------------|
----------------------------------|--------------------------|
----------------------------------|--------------------------|


                                                                          

--------------------------|----------------------|-----------------------|
--------------------------|--8----8------8----8--|----8--8----8--8--8----|
--6--6--6--6--6--6--6--6--|----------------------|-----------------------|
--------------------------|--5----5------5----5--|----5--5----5--5--5----|
--------------------------|----------------------|-----------------------|
--------------------------|----------------------|-----------------------|


                                                                              
--------------------------|--------------------------|-----------------------|
--------------------------|--------------------------|--8----8------7--7--8--|
--7--7--7--7--7--7--7--6--|--6--6--6--6--6--6--6--6--|-----------------------|
-----------------------4--|--4--4--4--4--4--4--4--4--|--5----5------4--4--5--|
--5--5--5--5--5--5--5-----|--------------------------|-----------------------|
--------------------------|--------------------------|-----------------------|


                                                                        
-----------------------|------------------------|----5-------5----5----|
-------8----8--8-------|-------7-------7--7-----|----------------------|
-----------------------|------------------------|----------------------|
----5--5----5--5-------|------------------------|----------------------|
-----------------------|--5---------5--------4--|---------4------------|
------------------3b---|------------------------|----------------------|


                                                                           
-------7--------------|------------------------|--------------------------|
----------------------|------------------------|--------------------------|
--------------6----7--|-------7--7--7--6----7--|--7--7--7--7--7--7--7--7--|
----------------------|------------------------|--------------------------|
--5-----------4----5--|----5--5--5--5--4----5--|--------------------------|
----------------------|------------------------|--7--7--7--7--7--7--7--7--|


                                                      
--------------------------|--------------------------|
--------------------------|--------------------------|
--7--7--7--7--7--7--7-----|--------------------------|
-----------------------4--|--5--5--5--5--5--5--5--5--|
-----------------------4--|--5--5--5--5--5--5--5--5--|
--7--7--7--7--7--7--7--2--|--3--3--3--3--3--3--3--3--|


                                                                          
--------------------------|-----------------------|----------------------|
--------------------------|-----------------------|----------------------|
--------------------------|--4----4----4----4--6--|--7----7----7----7----|
--5--5--5--5--5--5--5--5--|-----------------------|----------------------|
--5--5--5--5--5--5--5--5--|--2----2----2----2--4--|--5----5----5----5----|
--3--3--3--3--3--3--3--3--|-----------------------|----------------------|


                                                                      
----------------------|----------------------|-----------------------|
----------------------|----------------------|-----------------------|
------4--4--6----7----|------4--4--6----7----|--4----4----4----4--6--|
----------------------|----------------------|-----------------------|
------2--2--4----5----|------2--2--4----5----|--2----2----2----2--4--|
----------------------|----------------------|-----------------------|


                                                                     
----------------------|----------------------|----------------------|
----------------------|----------------------|----------------------|
--7----7----7----7----|------4--4--6----7----|------4--4--6----7----|
----------------------|----------------------|----------------------|
--5----5----5----5----|------2--2--4----5----|------2--2--4----5----|
----------------------|----------------------|----------------------|




                                                                          
----------------------|-----------------------|--------------------------|
----------------------|-----------------------|--------------------------|
------4--4--6----7----|------7--7--9----11----|------11--11--12----14----|
----------------------|-----------------------|--------------------------|
------2--2--4----5----|------5--5--7----9-----|------9---9---10----12----|
----------------------|-----------------------|--------------------------|



                                                                         
------------------------------|----------------------|------------------|
------------------------------|----------------------|------------------|
------16--16--18--18--19--19--|-----------7----------|------------------|
------------------------------|--9--9--9-------------|------------------|
------14--14--16--16--17--17--|----------------------|------------------|
------------------------------|----------------------|------------------|


                                       
------------------|------------------||
------------------|------------------||
------------------|------------------||
------------------|------------------||
------------------|------------------||
------------------|------------------||


Comments