Matches The - Chain Me Free Chords & Tabs

 

Chain Me Free Chords & Tabs

Matches The Chords & Tabs

Version: 1 Type: Tab 0 ratings
1 star 2 stars 3 stars 4 stars 5 stars
comments

Chain Me Free Tab

E||------------------|----------------------|------------------------|
B||------------------|----------------------|------------------------|
G||------------------|--6--6------4--4------|--2--2-----2-2--2---4---|
D||------------------|--6--6------4--4------|--2--2-----2-2--2-------|
A||------------------|--4--4------2--2------|--0--0-----0-0--0---2---|
E||------------------|----------------------|------------------------|


                                                                              
------------------------|-------------------------|--------------------------|
------------------------|-------------------------|--------------------------|
--6--6----6--8--8----8--|--9--9----9--9--9---11---|----13---14---13---11-----|
------------------------|-------------------------|--------------------------|
--4--4----4--6--6----6--|--7--7----7--7--7---9----|----11---12---11---9------|
-------------7--7----7--|--5--5----5--5--5---7----|--------------------------|


                                                        
---------------------------|---------------------------|
---------------------------|---------------------------|
--9--9---11---13---11------|----------14---13---11-----|
---------------------------|---------------------------|
--7--7---9----11---9-------|--7/-11---12---11---9------|
------------------------7--|---------------------------|


                                                                         

--------------------------|-------------------|-------------------------|
--------------------------|-------------------|-------------------------|
--9--9---11---13---11-----|--9----------------|-------------------------|
--------------------------|-------------------|-------------------------|
--7--7---9----11---9------|--7----------------|--0--0----0-0-2--2----2/-|
--------------------------|-------------------|-------------------------|


                                                                          
-------------------|-------------------------|---------------------------|
-------------------|-------------------------|---------------------------|
-------------------|-------------------------|----------14---13---11-----|
-------------------|-------------------------|---------------------------|
--7----------------|--0--0----0-0-2--2----2/-|--7/-11---12---11---9------|
-------------------|-------------------------|---------------------------|




                                                       
--------------------------|---------------------------|
--------------------------|---------------------------|
--9--9---11---13---11-----|----------14---13---11-----|
--------------------------|---------------------------|
--7--7---9----11---9------|--7/-11---12---11---9------|
--------------------------|---------------------------|


                                                                     
--------------------------|--------------------|--------------------|
--------------------------|--------------------|--------------------|
--9--9---11---13---11-----|--9--------8--------|--------------------|
--------------------------|--------------------|--9--------6--------|
--7--7---9----11---9------|--7--------6--------|--------------------|
--------------------------|--------------------|--7--------4--------|


                                                                     
--------------------|----------------------|------------------------|
--------------------|----------------------|------------------------|
--------------------|--6--6------4--4------|--2--2-----2-2--2---4---|
--7--------9--------|--6--6------4--4------|--2--2-----2-2--2-------|
--------------------|--4--4------2--2------|--0--0-----0-0--0---2---|
--5--------7--------|----------------------|------------------------|


                                                                           
------------------------|-------------------------|-----------------------|
------------------------|-------------------------|-----------------------|
--6--6----6--8--8----8--|--9--9----9--9--9---11---|--9--9----9--8--8------|
------------------------|-------------------------|-----------------------|
--4--4----4--6--6----6--|--7--7----7--7--7---9----|--7--7----7--6--6------|
-------------7--7----7--|--5--5----5--5--5---7----|--9--9----9--7--7------|


                                                            
------------------------|----------------------------------|
------------------------|----------------------------------|
--6--6-----6-6--6---4---|--6-6-6-6-6-6-6-6-8-8-8-8-8-8-8-8-|
------------------------|----------------------------------|
--4--4-----4-4--4---2---|--4-4-4-4-4-4-4-4-6-6-6-6-6-6-6-6-|
--5--5-----5-5--5-------|------------------7-7-7-7-7-7-7-7-|


                                                     
-------------------------|--------------------------|
-------------------------|--------------------------|
--9--9----9--9--9---11---|----13---14---13---11-----|
-------------------------|--------------------------|
--7--7----7--7--7---9----|----11---12---11---9------|
--5--5----5--5--5---7----|--------------------------|


                                                        
---------------------------|---------------------------|
---------------------------|---------------------------|
--9--9---11---13---11------|----------14---13---11-----|
---------------------------|---------------------------|
--7--7---9----11---9-------|--7/-11---12---11---9------|
------------------------7--|---------------------------|




                                                                         
--------------------------|-------------------|-------------------------|
--------------------------|-------------------|-------------------------|
--9--9---11---13---11-----|--9----------------|-------------------------|
--------------------------|-------------------|-------------------------|
--7--7---9----11---9------|--7----------------|--0--0----0-0-2--2----2/-|
--------------------------|-------------------|-------------------------|


                                                                          
-------------------|-------------------------|---------------------------|
-------------------|-------------------------|---------------------------|
-------------------|-------------------------|----------14---13---11-----|
-------------------|-------------------------|---------------------------|
--7----------------|--0--0----0-0-2--2----2/-|--7/-11---12---11---9------|
-------------------|-------------------------|---------------------------|


                                                       
--------------------------|---------------------------|
--------------------------|---------------------------|
--9--9---11---13---11-----|----------14---13---11-----|
--------------------------|---------------------------|
--7--7---9----11---9------|--7/-11---12---11---9------|
--------------------------|---------------------------|


                                                                     
--------------------------|--------------------|--------------------|
--------------------------|--------------------|--------------------|
--9--9---11---13---11-----|--9--------8--------|--------------------|
--------------------------|--------------------|--9--------6--------|
--7--7---9----11---9------|--7--------6--------|--------------------|
--------------------------|--------------------|--7--------4--------|


                                                                     
--------------------|----------------------|------------------------|
--------------------|----------------------|------------------------|
--------------------|--6--6------4--4------|--2--2-----2-2--2---4---|
--7--------9--------|--6--6------4--4------|--2--2-----2-2--2-------|
--------------------|--4--4------2--2------|--0--0-----0-0--0---2---|
--5--------7--------|----------------------|------------------------|


                                                                           
[ Tab from: http://www.guitartabs.cc/tabs/m/matches_the/chain_me_free_tab.html ]
------------------------|-------------------------|-----------------------|
------------------------|-------------------------|-----------------------|
--6--6----6--8--8----8--|--9--9----9--9--9---11---|--9--9----9--8--8------|
------------------------|-------------------------|-----------------------|
--4--4----4--6--6----6--|--7--7----7--7--7---9----|--7--7----7--6--6------|
-------------7--7----7--|--5--5----5--5--5---7----|--9--9----9--7--7------|


                                                                    
------------------------|------------------------------------------|
------------------------|------------------------------------------|
--6--6-----6-6--6---8---|--9-9-9-9-9-9-9-9-11-11-11-11-11-11-11-11-|
------------------------|------------------------------------------|
--4--4-----4-4--4---6---|--7-7-7-7-7-7-7-7-9--9--9--9--9--9--9--9--|
--5--5-----5-5--5-------|------------------------------------------|


                                                              
--------------------------|----------------------------------|
--------------------------|----------------------------------|
--13------14--13----11----|--9-9-9-9-9-9-9-9-9-9-9-9-9-9-9-9-|
--------------------------|----------------------------------|
--11------12--11----9-----|--7-7-7-7-7-7-7-7-7-7-7-7-7-7-7-7-|
--------------------------|----------------------------------|


                                   
----------------------------------|
----------------------------------|
--9-9-9-9-9-9-9-9-9-8-8-8-8-9-9-9-|
----------------------------------|
--7-7-7-7-7-7-7-7-7-6-6-6-6-7-7-7-|
----------------------------------|


                                                  
-------------------------------------------------|
-------------------------------------------------|
--9-13-13-13-13-13-13-13-13-13-13-13-13-13-13-13-|
-------------------------------------------------|
--7-11-11-11-11-11-11-11-11-11-11-11-11-11-11-11-|
-------------------------------------------------|


                                                                   
-------------------------------------------|----------------------|
-------------------------------------------|----------------------|
--13-14-14-14-14-14-14-14-14-8-8-8-8-8-8-8-|--6--6----------------|
-------------------------------------------|--6--6------6--6------|
--11-12-12-12-12-12-12-12-12-6-6-6-6-6-6-6-|--4--4------6--6------|
-------------------------------------------|------------4--4------|


                                                                              
-------------------------|-------------------------|-------------------------|
-------------------------|----------9--------------|-------------------------|
------------------11r--9-|----------9--------------|-------------------------|
--7--7------9--9---------|--11--11-----------11----|------9------------------|
--7--7------9--9---------|-------------------------|-----------9---7-9-7-----|
--5--5------7--7---------|-------------------------|---------------------9-7-|


                                                            
--------------------------|--------9-------------14r12-----|
---------9~---------12----|--------12~-----------------14--|
---------9~---8--8--11~---|--9--9--------11--11------------|
--------------------------|--------------------------------|
--------------6--6--------|--7--7--------9---9-------------|
--7h9-9-------------------|--------------------------------|



                                                                
---------------------14r12-------|--12--12---------------------|
----------9~---------------14-12-|--14--14---------------------|
----------9~---8--8--------------|--------------11--11--11r--9-|
--11--11-------------------------|-----------------------------|
---------------6--6--------------|--------------9---9----------|
--9---9--------------------------|-----------------------------|


                                                      
----------------------------|------------------------|
------9-----10--------12r---|----9-------------------|
------9-----11--------------|-----------------9--11--|
--11-----9------9--9--------|-------------11---------|
----------------------------|------------------------|
----------------------------|------------------------|


                                                              
----------------------------------|----9----11----12---------|
-------------9-----------9----12--|--------------------------|
--9-------------------------9-----|--9----9-----9------------|
-----11-9-11-----11-9-11----------|--------------------------|
----------------------------------|--------------------------|
----------------------------------|--------------------------|


                                                               
----12-12-12-12---11---9-------|------------------------------|
---------------------------12--|--12---12r-------12-----------|
-------------------------------|------------9-------12-9------|
-------------------------------|------------------------------|
-------------------------------|-------------------------10---|
-------------------------------|------------------------------|


                                   
------------------12--------------|
----14---------------12-----------|
-------12---------------12--------|
----------14-11------------14-----|
----------------------------------|
----------------------------------|


                                                   
--------------------------12-12-12-12-15-15-15-15-|
--------------12-12-12-12-12-12-12-12-12-12-12-12-|
--12-12-12-12-12-12-12-12-12-12-12-12-12-12-12-12-|
--14-14-14-14-14-14-14-14-14-14-14-14-14-14-14-14-|
--------------------------------------------------|
--------------------------------------------------|


                                                   
--12-12-12-12-12-12-12-12-12-12-12-12-12-12-12-12-|
--------------------------------------------------|
--9--9--9--9--9--9--9--9--9--9--9--9--9--9--9--9--|
--------------------------------------------------|
--------------------------------------------------|
--------------------------------------------------|


                                   
----------------------------------|
----------------------------------|
--9-9-9-9-9-9-9-9-9-8-8-8-8-9-9-9-|
----------------------------------|
--7-7-7-7-7-7-7-7-7-6-6-6-6-7-7-7-|
----------------------------------|


                                                  
-------------------------------------------------|
-------------------------------------------------|
--9-13-13-13-13-13-13-13-13-13-13-13-13-13-13-13-|
-------------------------------------------------|
--7-11-11-11-11-11-11-11-11-11-11-11-11-11-11-11-|
-------------------------------------------------|


                                                                               


-------------------------------------------|----------------------------------|
-------------------------------------------|----------------------------------|
--13-14-14-14-14-14-14-14-14-8-8-8-8-8-8-8-|--9-9-9-9-9-9-9-9-9-9-9-9-9-9-9-9-|
-------------------------------------------|----------------------------------|
--11-12-12-12-12-12-12-12-12-6-6-6-6-6-6-6-|--7-7-7-7-7-7-7-7-7-7-7-7-7-7-7-7-|
-------------------------------------------|----------------------------------|


                                                                   
-----------------------------------|------------------------------|
-----------------------------------|------------------------------|
--9-9-9-9-9-9-9-9-9-11-11-11-11----|--9--9-9-8--8-8-6--6-6-4--4-4-|
-----------------------------------|--9--9-9-9--9-9-6--6-6-4--4-4-|
--7-7-7-7-7-7-7-7-7-9--9--9--9-----|--7--7-7-6--6-6-4--4-4-2--2-2-|
-----------------------------------|------------------------------|


                                                                 
------------------------|-------------------|------------------||
------------------------|-------------------|------------------||
--2----2----2-4-4--4----|-------------------|------------------||
--2----2----2-4-4--4----|--2----------------|------------------||
--0----0----0-2-2--2----|--2----------------|------------------||
------------------------|--0----------------|------------------||



Comments