Matches The - Audio Blood Chords & Tabs

 

Audio Blood Chords & Tabs

Matches The Chords & Tabs

Version: 1 Type: Tab 1 rating
1 star 2 stars 3 stars 4 stars 5 stars
comments

Audio Blood Tab

E||------|--------------------------|--------------------------|
B||------|--------------------------|--------------------------|
G||------|--------------------------|--------------------------|
D||------|--9--9--9--9--9--9--9--9--|--9--9--9--9--9--9--9--9--|
A||------|--------------------------|--------------------------|
E||------|--------------------------|--------------------------|


                                                      
--------------------------|--------x--x--------x--x--|
--------------------------|--------x--x--------x--x--|
--------------------------|--------x--x--------x--x--|
--6--6--6--6--6--6--6--6--|--4--4--x--x--4--4--x--x--|
--------------------------|--4--4--x--x--4--4--x--x--|
--------------------------|--2--2--x--x--2--2--x--x--|


                                                      
--------x--x--------x--x--|--------x--x--------x--x--|
--------x--x--------x--x--|--------x--x--------x--x--|
--------x--x--------x--x--|--7--7--x--x--7--7--x--x--|
--4--4--x--x--4--4--x--x--|--7--7--x--x--7--7--x--x--|
--4--4--x--x--4--4--x--x--|--5--5--x--x--5--5--x--x--|
--2--2--x--x--2--2--x--x--|--------x--x--------x--x--|




                                                      
--------x--x--------x--x--|--------x--x--------x--x--|
--------x--x--------x--x--|--------x--x--------x--x--|
--------x--x--------x--x--|--------x--x--------x--x--|
--7--7--x--x--7--7--x--x--|--4--4--x--x--4--4--x--x--|
--7--7--x--x--7--7--x--x--|--4--4--x--x--4--4--x--x--|
--5--5--x--x--5--5--x--x--|--2--2--x--x--2--2--x--x--|


                                                      

--------x--x--------x--x--|--------x--x--------x--x--|
--------x--x--------x--x--|--------x--x--------x--x--|
--------x--x--------x--x--|--7--7--x--x--7--7--x--x--|
--4--4--x--x--4--4--x--x--|--7--7--x--x--7--7--x--x--|
--4--4--x--x--4--4--x--x--|--5--5--x--x--5--5--x--x--|
--2--2--x--x--2--2--x--x--|--------x--x--------x--x--|

                        
                           octaver effect on                                   
--------x--x--------x--x--|------------------------------|
--------x--x--------x--x--|--------10--10--------10--10--|
--------x--x--------x--x--|------------------------------|
--7--7--x--x--7--7--x--x--|------------------------------|
--7--7--x--x--7--7--x--x--|--9--9----------9--9----------|
--5--5--x--x--5--5--x--x--|------------------------------|


                                                       
---------------------------|--x--x--x--x--x--x--x--x--|
--------9--9--------9/-10--|--x--x--x--x--x--x--x--x--|
---------------------------|--x--x--x--x--x--x--x--x--|
---------------------------|--x--x--x--x--x--x--x--x--|
--9--9--------9--9---------|--x--x--x--x--x--x--x--x--|
---------------------------|--x--x--x--x--x--x--x--x--|



                                                          
--x--x--x--x--x--x--------|------------------------------|
--x--x--x--x--x--x--------|--------10--10--------10--10--|
--x--x--x--x--x--x--------|------------------------------|
--x--x--x--x--x--x--------|------------------------------|
--x--x--x--x--x--x--------|--9--9----------9--9----------|
--x--x--x--x--x--x--5--5--|------------------------------|


                                                       
---------------------------|--x--x--x--x--x--x--x--x--|
--------9--9--------9/-10--|--x--x--x--x--x--x--x--x--|
---------------------------|--x--x--x--x--x--x--x--x--|
---------------------------|--x--x--x--x--x--x--x--x--|
--9--9--------9--9---------|--x--x--x--x--x--x--x--x--|
---------------------------|--x--x--x--x--x--x--x--x--|


                               octaver off                                             
--x--x--x--x--x--x--------|---------------------|--5--5--5--5--5-----------|
--x--x--x--x--x--x--------|---------------------|--------------------------|
--x--x--x--x--x--x--------|---------------------|--------------------------|
--x--x--x--x--x--x--------|------------5--7--7--|-----------------5--7--7--|
--x--x--x--x--x--x--------|------------5--7--7--|-----------------5--7--7--|
--x--x--x--x--x--x--5--5--|------------3--5--5--|-----------------3--5--5--|


                                                          
--------------------------|--17--17--17--17--17--17------|
--5--5--5--5--5-----------|------------------------------|
--------------------------|--14--14--14--14--14--14------|
-----------------5--7--7--|------------------------------|
-----------------5--7--7--|------------------------------|
-----------------3--5--5--|------------------------------|


                                                                               

--------------------------|--------------------------|------------------------|
--------------------------|--------------------------|------------------------|
--7--7--7--7--7--7--7--7--|--7--7--7--7--7--7--7--7--|--9----9----9/-11--9----|
--7--7--7--7--7--7--7--7--|--7--7--7--7--7--7--7--7--|------------------------|
--5--5--5--5--5--5--5--5--|--x--x--x--x--x--x--x--x--|--7----7----7/-9---7----|
--------------------------|--7--7--7--7--7--7--7--7--|------------------------|


                                                                           

------------------------|------------------------|------------------------|
------------------------|------------------------|------------------------|
--9----9----9/-11--9----|--9----9----9/-11--9----|--9----9----9/-11--9----|
------------------------|------------------------|------------------------|
--7----7----7/-9---7----|--7----7----7/-9---7----|--7----7----7/-9---7----|
------------------------|------------------------|------------------------|


                                                                     
----------------------|----------------------|----------------------|
----------------------|----------------------|----------------------|
----------------------|----------------------|----------------------|
--7--7------7--7------|--7--7------7--7------|--5--5------3--3------|
--7--7------7--7------|--7--7------7--7------|--5--5------3--3------|
--5--5------5--5------|--5--5------5--5------|--3--3------1--1------|


                                         wah......................                                 
-------------------|------------------|----------------------------------|
-------------------|------------------|----------------------------------|
-------------------|------------------|----------14--14----------14--14--|
--2----------------|------------------|----------------------------------|
--2----------------|------------------|----------------------------------|
--0----------------|------------------|--14--14----------14--14----------|




wah....................................................                                                                             
--------------------------------|--------------17--------|------------------|
--------------------------------|--------14--------------|------------------|
----14--13------13--------------|--------------------16r-|------------------|
------------16------16--15--16--|------------------------|------------------|
--------------------------------|------------------------|------------------|
--------------------------------|------------------------|------------------|


                                                           
------------------|------------------|------------x----x--|
------------------|------------------|------------x----x--|
------------------|------------------|------------x----x--|
------------------|------------------|------------x----x--|
------------------|------------------|------------x----x--|
------------------|------------------|------------x----x--|


                              octaver effect on                            
--x--x--x--x--x--x--------|------------------------------|
--x--x--x--x--x--x--------|--------10--10--------10--10--|
--x--x--x--x--x--x--------|------------------------------|
--x--x--x--x--x--x--7--7--|------------------------------|
--x--x--x--x--x--x--7--7--|--9--9----------9--9----------|
--x--x--x--x--x--x--5--5--|------------------------------|


                                                       
---------------------------|--x--x--x--x--x--x--x--x--|
--------9--9--------9/-10--|--x--x--x--x--x--x--x--x--|
---------------------------|--x--x--x--x--x--x--x--x--|
---------------------------|--x--x--x--x--x--x--x--x--|
--9--9--------9--9---------|--x--x--x--x--x--x--x--x--|
---------------------------|--x--x--x--x--x--x--x--x--|


                             octaver off                                               
--x--x--x--x--x--x--------|---------------------|--5--5--5--5--5-----------|
--x--x--x--x--x--x--------|---------------------|--------------------------|
--x--x--x--x--x--x--------|---------------------|--------------------------|
--x--x--x--x--x--x--------|------------5--7--7--|-----------------5--7--7--|
--x--x--x--x--x--x--------|------------5--7--7--|-----------------5--7--7--|
--x--x--x--x--x--x--5--5--|------------3--5--5--|-----------------3--5--5--|



[ Tab from: http://www.guitartabs.cc/tabs/m/matches_the/audio_blood_tab.html ]
                                                          
--------------------------|--17--17--17--17--17--17------|
--5--5--5--5--5-----------|------------------------------|
--------------------------|--14--14--14--14--14--14------|
-----------------5--7--7--|------------------------------|
-----------------5--7--7--|------------------------------|
-----------------3--5--5--|------------------------------|



                                                                               
--------------------------|--------------------------|------------------------|
--------------------------|--------------------------|------------------------|
--7--7--7--7--7--7--7--7--|--7--7--7--7--7--7--7--7--|--9----9----9/-11--9----|
--7--7--7--7--7--7--7--7--|--7--7--7--7--7--7--7--7--|------------------------|
--5--5--5--5--5--5--5--5--|--x--x--x--x--x--x--x--x--|--7----7----7/-9---7----|
--------------------------|--7--7--7--7--7--7--7--7--|------------------------|


                                                                           
------------------------|------------------------|------------------------|
------------------------|------------------------|------------------------|
--9----9----9/-11--9----|--9----9----9/-11--9----|--9----9----9/-11--9----|
------------------------|------------------------|------------------------|
--7----7----7/-9---7----|--7----7----7/-9---7----|--7----7----7/-9---7----|
------------------------|------------------------|------------------------|


                                                                     
----------------------|----------------------|----------------------|
----------------------|----------------------|----------------------|
----------------------|----------------------|----------------------|
--7--7------7--7------|--7--7------7--7------|--5--5------3--3------|
--7--7------7--7------|--7--7------7--7------|--5--5------3--3------|
--5--5------5--5------|--5--5------5--5------|--3--3------1--1------|


                                                               
-------------------|------------------|-----------------------|
-------------------|------------------|-----------------------|
-------------------|------------------|-----------------------|
--2----------------|------------------|-----------------------|
--2----------------|------------------|------------3----------|
--0----------------|------------------|--2------2-----2--5~---|


                                                                        
-----------------------|-----------------------|-----------------------|
-----------------------|-----------------------|-----------------------|
-----------------------|-----------------------|-----------------------|
-----------------------|-----------------------|-----------------------|
------------3----------|------------3----------|------------3----------|
----2----2-----2--5~---|--2------2-----2--5~---|----2----2-----2--5~---|


  wah..............................................................                                                                      
-----------------------|-----------------------|-----------------------|
-----------------------|-----------------------|-----------------------|
------------5-----2~---|------------5-----2~---|------------5-----2/---|
--4------4-----4-------|----4----4-----4-------|--4------4-----4-------|
-----------------------|-----------------------|-----------------------|
-----------------------|-----------------------|-----------------------|


wah........................                                                                              
----------------------------|------|------|------|------|-----------5--------|
----------------------------|------|------|------|------|--------2-----------|
--------------17------14~---|------|------|------|------|--------------------|
----16----16------16--------|------|------|------|------|--------------------|
----------------------------|------|------|------|------|--------------------|
----------------------------|------|------|------|------|--------------------|


                                                                                

------------------|-----------5--------|------------------|-----------5--------|
------------------|--------2-----------|------------------|--------2-----------|
------------------|--------------------|------------------|--------------------|
------------------|--------------------|------------------|--------------------|
------------------|--------------------|------------------|--------------------|
------------------|--------------------|------------------|--------------------|


                                                             
--4-----------------|-------------------|-------------------|
-----------5--------|--2----------------|----------2/-------|
--------------------|-------------------|-------------------|
--------------------|-------------------|-------------------|
--------------------|-------------------|-------------------|
--------------------|-------------------|-------------------|


                                                                      
------------------17--17--17--17--|--16--16--16--16--16--16--16--16--|
--14--14--14--14--14--14--14--14--|--14--14--14--14--17--17--17--17--|
----------------------------------|----------------------------------|
----------------------------------|----------------------------------|
----------------------------------|----------------------------------|
----------------------------------|----------------------------------|



                                                                      
--14--14--14--14--14--14--14--14--|--14--14--14--14--14--14--14--14--|
--14--14--14--14--14--14--14--14--|--14--14--14--14--14--14--14--14--|
----------------------------------|----------------------------------|
----------------------------------|----------------------------------|
----------------------------------|----------------------------------|
----------------------------------|----------------------------------|


                                                                     
--14--14--14------------|------------------|------------------------|
--15--15--15------------|------------------|------------------------|
--14--14--14------------|------------------|--9----9----9/-11--9----|
------------------------|------------------|------------------------|
------------------------|------------------|--7----7----7/-9---7----|
------------------------|------------------|------------------------|


                                                                           
------------------------|------------------------|------------------------|
------------------------|------------------------|------------------------|
--9----9----9/-11--9----|--9----9----9/-11--9----|--9----9----9/-11--9----|
------------------------|------------------------|------------------------|
--7----7----7/-9---7----|--7----7----7/-9---7----|--7----7----7/-9---7----|
------------------------|------------------------|------------------------|


                                                                     
----------------------|----------------------|----------------------|
----------------------|----------------------|----------------------|
----------------------|----------------------|----------------------|
--7--7------7--7------|--7--7------7--7------|--5--5------3--3------|
--7--7------7--7------|--7--7------7--7------|--5--5------3--3------|
--5--5------5--5------|--5--5------5--5------|--3--3------1--1------|


                                                                               
--------------------------|--------------------------|------------------------|
--------------------------|--------------------------|------------------------|
--------------------------|--------------------------|-------------5-5--5-----|
--2--2--2--2--2--2--2--2--|--2--2--2--2--2--2--2--2--|--7----7-----5-5--5-----|
--2--2--2--2--2--2--2--2--|--2--2--2--2--2--2--2--2--|--7----7-----3-3--3-----|
--0--0--0--0--0--0--0--0--|--0--0--0--0--0--0--0--0--|--5----5-------------0--|


                                                                          
------------------------|------------------------|-----------------------|
------------------------|------------------------|-----------------------|
------------------------|-------------5-5--5-----|--------------7--7--9--|
--3----3-----5-5--5--6--|--7----7-----5-5--5-----|--3----3---------------|
--3----3-----5-5--5--6--|--7----7-----3-3--3-----|--3----3------5--5--7--|
--1----1-----3-3--3--4--|--5----5-------------0--|--1----1---------------|


                                                                            

------------------------|-----------------------|--------------------------|
------------------------|-----------------------|--------------------------|
-------------5-5--5-----|-----------------------|-----------------------1--|
--7----7-----5-5--5-----|--3----3-----5-5--5----|--2--2--2--2--2--2--2--2--|
--7----7-----3-3--3-----|--3----3-----5-5--5----|--2--2--2--2--2--2--2--2--|
--5----5-------------0--|--1----1-----3-3--3----|--0--0--0--0--0--0--0--0--|



                                                       
-----------------0--0--0--|--------------------------||
--0--0--0--0--0--0--0--0--|--------------------------||
--1--1--1--1--1--1--1--1--|--------5--7--7b-7b-7--5--||
--2--2--2--2--2--2--2--2--|--7--7--------------------||
--2--2--2--2--2--2--2--2--|--------------------------||
--0--0--0--0--0--0--0--0--|--------------------------||


Comments