Matches - Scratched Out Chords & Tabs

 

Scratched Out Chords & Tabs

Matches Chords & Tabs

Version: 1 Type: Tab 0 ratings
1 star 2 stars 3 stars 4 stars 5 stars
comments

Scratched Out Tab

   
e-----2-2-x-2-2-----2-2-2-2-2-2---|
b-----3-3-x-3-3-----0-0-0-0-0-0---|
g-----4-4-x-4-4-----4-4-4-4-4-4---|
d-----4-4-x-4-4-----4-4-4-4-4-4---|
a-2-2-2-2-x-2-2-----2-2-2-2-2-2---|
E---------------3-3-3-3-3-3-3-3---|

e---9---7---5-5-3-3-3-|
b--7-7-5-5--3-3-3-3-3-|
g-7---5-----4-4-3-3-3-|
d-----------5-5-5-5-5-|
a---------------------|
E---------------------|

e-----2-2-x-2-2-----2-2-2-2-2-2---|
b-----3-3-x-3-3-----0-0-0-0-0-0---|
g-----4-4-x-4-4-----4-4-4-4-4-4---|
d-----4-4-x-4-4-----4-4-4-4-4-4---|
a-2-2-2-2-x-2-2-----2-2-2-2-2-2---|
E---------------3-3-3-3-3-3-3-3---|

e---9---7---5-5-3-|
b--7-7-5-5--3-3-3-|
g-7---5-----4-4-4-|
d-----------5-5-5-|
a-----------------|
E-----------------|
[ Tab from: http://www.guitartabs.cc/tabs/m/matches/scratched_out_tab.html ]
Verse, Palm Muted...
e-3-3-3-3-5-5-5-5-2-2-2-2-|
b-3-3-3-3-5-5-5-5-3-3-3-3-|
g-4-4-4-4-6-6-6-6-4-4-4-4-| Repeat 3 times
d-5-5-5-5-7-7-7-7-4-4-4-4-|
a-5-5-5-5-7-7-7-7-2-2-2-2-|
E-3-3-3-3-5-5-5-5---------|
^G Major ^a Major ^b Minor

Palm Muted...
e-3-3-3-3-5-5-5-5-2-2-2-2-------------------|
b-3-3-3-3-5-5-5-5-3-3-3-3-7-7-7-7-9-9-9-9---|
g-4-4-4-4-6-6-6-6-4-4-4-4-7-7-7-7-9-9-9-9---|
d-5-5-5-5-7-7-7-7-4-4-4-4-5-5-5-5-7-7-7-7---|
a-5-5-5-5-7-7-7-7-2-2-2-2-------------------|
E-3-3-3-3-5-5-5-5---------------------------|

e----------------------------|
b-12-12-12-12-11-11-11-11----|
g-12-12-12-12-11-11-11-11----|
d-10-10-10-10-9--9---9--9----|
a----------------------------|
E----------------------------|

Chorus...
e-2-2-2-2-3-3-3-3---------5-5-5-5--|
b-3-3-3-3-3-3-3-3---------5-5-5-5--|
g-4-4-4-4-4-4-4-4-5-5-5-5-6-6-6-6--|
d-4-4-4-4-5-5-5-5-5-5-5-5-7-7-7-7--|
a-2-2-2-2-5-5-5-5-3-3-3-3-7-7-7-7--|
E---------3-3-3-3---------5-5-5-5--|
Comments