Matches - Jack Slap Cheer Chords & Tabs

 

Jack Slap Cheer Chords & Tabs

Matches Chords & Tabs

Version: 1 Type: Tab 0 ratings
1 star 2 stars 3 stars 4 stars 5 stars
comments

Jack Slap Cheer Tab

   
Intro (Palm Muted)
e--------------------------------------|
b--------------------------------------|
g--------------------------------------|
d--------------------------------------|
a-4-4-4-4------------------------------|
E----------4-4-4-4-6-7-7-7-6-2-2-2-4---|

Repeat 4 times, on fourth end with
e---
b---
g---
d-4-
a-4-
E-2-
[ Tab from: http://www.guitartabs.cc/tabs/m/matches/jack_slap_cheer_tab.html ]
Distortion (you can figure the strumming pattern)
e-----------------|
b-----------------|
g-6---------------|
d-6-6-8-9-8-4-6---|
a-4-6-8-9-8-4-6---|
E---4-6-7-6-2-4---|

This Town Gets, so BORING
e-----------------------------|
b-----------------------------|
g-6-----6-----6-------6---6---|
d-6-6-4-6-6-4-6-8-4-6-6-6-6---|
a-4-6-4-4-6-4-4-8-4-6-4-6-4---|
E---4-2---4-2---6-2-4---4-----|

Repeat intro

After Bridge with Drums/Vox

e----------------------------|
b----------------------------|
g-6-6-x----------------------|
d-6-6-x-6-6-x-4-4-x-4-4--2---|
a-4-4-x-6-6-x-4-4-x-4-4--2---|
E-------4-4-x-2-2-x-2-2--0---|

The Rest is just repeated lines
Comments