Matches - Eryn Smith Chords & Tabs

 

Eryn Smith Chords & Tabs

Matches Chords & Tabs

Version: 1 Type: Tab 0 ratings
1 star 2 stars 3 stars 4 stars 5 stars
comments

Eryn Smith Tab

   
e------------------------------------------|
b------------------------------------------|
g---------------------------------7-9-12---|
d-7-7-10-7----7-7-10-7----7-9-10-----------|
a------------------------------------------|
E------------------------------------------|

e------------------------------------------|
b------------------------------------------|
g----------7--9-12--------------14---------|
d-7-9-10---x--x--x-(end with >)--x---------|
a-x-x--x---5--7-10--------------12---------|
E-5-7--8-----------------------------------|

Riff C
e-----------------------------------------------|
b-----------------------------------------------|
g-7-7-10--9-10----7-7-10--9-10--5-5-5-5-5-5-5---|
d-x-x--x--x--x----x-x--x--x--x--5-5-5-5-5-5-5---|
a-5-5--8--7--8----5-5--8--7--8--3-3-3-3-3-3-3---|
E-----------------------------------------------|
[ Tab from: http://www.guitartabs.cc/tabs/m/matches/eryn_smith_tab.html ]
Riff A
e------------------------------------------|
b------------------------------------------|
g-7-7-5-3--7-7-5-5--7-7-5-3--7-7-5-5-------|
d-7-7-5-3--7-7-5-5--7-7-5-3--7-7-5-5-------|
a-5-5-3-1--5-5-3-3--5-5-3-1--5-5-3-3-------|
E------------------------------------------|

Repeat ^ for verse

Riff B
e-----------------------------------------------|
b-----------------------------------------------|
g-----------------------------------------------|
d-7-7-7-7-7--5-5-5-5-5--3-3-3-3-3--2-2-2-2-2----|
a-7-7-7-7-7--5-5-5-5-5--3-3-3-3-3--2-2-2-2-2----|
E-5-5-5-5-5--3-3-3-3-3--1-1-1-1-1--0-0-0-0-0----|

Chorus (Eryn Smith i don't want...)
e------------------------------------------|
b------------------------------------------|
g-5-5-5-5-3-3-3-3--------------------------|
d-5-5-5-5-3-3-3-3-3-3-3-3-5-5-5-5----------|
a-3-3-3-3-1-1-1-1-3-3-3-3-5-5-5-5----------|
E-----------------1-1-1-1-3-3-3-3----------|

Repeat riff b, then riff a, then riff b. Then Chorus, Then Riff C

(You should know..)
e-----------------------------------------|
b-----------------------------------------|
g-----------------------------------------|
d-5-----3---------5-----------------------|
a-5-----3-End ON--5-----------------------|
E-7-----1---------3-----------------------|
Comments