Matchbox 20 - Unwell Chords & Tabs

 

Unwell Chords & Tabs

Matchbox 20 Chords & Tabs

Version: 5 Type: Tab 0 ratings
1 star 2 stars 3 stars 4 stars 5 stars
comments

Unwell Tab

   
Hi guitarists! After looking at tabs of this song, I was surprised
no one has done the intro yet, I also have the guitar part on the
bridge. This song's great, have fun!

Capo 2nd fret
All positions relative to capo

Intro
(I think this is actually a mandolin, but if you can
find an effect that sounds good, use it)
(also, remember, it has a capo, so the -7/9- becomes -9/11-)
  G                             C      Em                         D
e|-------------------------------------------------------------------------|
B|-----8-10-8---------8-10-8-8~-------------8-10-8---------8-10-8-7~-------|
G|7/9---------9\7-7/9------------------7/9---------9\7-7/9-----------------|
D|-------------------------------------------------------------------------|
A|-------------------------------------------------------------------------|
E|-------------------------------------------------------------------------|
  G                          C                  
e|-------------------------------------------------------|
B|-----8-10-8---------8-10-8-8~--10-8---------8-10-8~----|
G|7/9---------9\7-7/9-----------------9\7-7/9------------|
D|-------------------------------------------------------|
A|-------------------------------------------------------|
E|-------------------------------------------------------|
  Em                         D
e|-------------------------------------------------|
B|-----8-10-8---------8-10-8-7~--------------------|
G|7/9---------9\7-7/9------------7----7/9--9-9/11~-|
D|---------------------------------7---------------|
A|-------------------------------------------------|
E|-------------------------------------------------|

Verse I

C   D   G              Em
All day staring at the ceiling making
C            D             Em
friends with shadows on my wall
C   D         G              Em
All night I'm hearing voices telling me that
C                                 D
I should get some sleep because tomorrow might be good for something


Pre-Chorus I

Bm     C-barre  G               D
Hold   on  I'm feeling like I'm headed for a
Bm    C-barre    G           D
Break down  and I don't know why


Chorus

G                               C                 
I'm not crazy I'm just a little unwell  I know right now you can't tell
Em                                     D
But stay a while and maybe then you'll see  a different side of me
G                               C
I'm not crazy I'm just a little impaired I know right now you don't care
Em                                    D
But soon enough you're gonna think of me, and how I used to 


Verse II
[ Tab from: http://www.guitartabs.cc/tabs/m/matchbox_20/unwell_tab_ver_5.html ]
C   D  G            Em              C           D              Em
Be, me talking to myself in public  and dodging glances on the train
C     D      G                     Em
and I know I know they've all been talking about me
C                              D
I can hear them whisper and it makes me think there must be something


Pre-Chorus II

Bm        C-barre      G              D
Wrong with me          out of all the hours thinking
Bm   C-barre   G
Some how       I've lost my mind


Chorus
(Repeat)

Bridge

e|-----------------------------------------------------------------------
B|--8-10-8~--------------------------------------8-10-8~------8----------
G|9------------9h11----------------------------9----------7/9--9---------
D|-----------------------------------------------------------------------
A|-----------------------------------------------------------------------
E|-----------------------------------------------------------------------
-------------------I've been talking in my sleep-------------------Pretty

e|-----------------------------------------------------------------------
B|------------------------8-10-8--10-8~--------8-------------------------
G|----------------------9-----------------7-/9--9~-----------------------
D|-----------------------------------------------------------------------
A|-----------------------------------------------------------------------
E|-----------------------------------------------------------------------
---soon they'll come to get me                      And they're taking me

e|-----------------------------15-14-10~|
B|--------8-10-8-8--12--10-10-----------|
G|7~~~7/9-------------------------------|
D|--------------------------------------|
A|--------------------------------------|
E|--------------------------------------|
--Alone.....---------------------------------|


FINAL CHORUS

Outro

e|-------------------------------------------|
B|-----8-10-8---------8-10-8-8~--10-8--------|
G|7/9---------9\7-7/9-----------------9\7~---|
D|-------------------------------------------|
A|-------------------------------------------|
E|-------------------------------------------|

e|----------------------------------------------|
B|-----8-10-8---------8-10-8-7~-----------------|
G|7/9---------9\7-7/9------------7---7-9--9-9/11|
D|---------------------------------7------------|
A|----------------------------------------------|
E|----------------------------------------------|

REPEAT AND FADE.........

Chords used

   C     D     G     Em    Bm   C-barre
e|-0-----2-----3-----0-----2-----3-----|
B|-1-----3-----3-----0-----3-----5-----|
G|-0-----2-----0-----0-----4-----5-----|
D|-2-----0-----0-----2-----4-----5-----|
A|-3-----X-----2-----2-----2-----3-----|
E|-X-----X-----3-----0-----X-----X-----|


There it is, this is my 1st tab I've done totally with self-improvising,
I've only submitted tabs from friends before. Rate it, so I can see
what to improve on. THANKS!!!
Comments