Matchbox 20 - Unwell Chords & Tabs

 

Unwell Chords & Tabs

Matchbox 20 Chords & Tabs

Version: 3 Type: Bass Tab 0 ratings
1 star 2 stars 3 stars 4 stars 5 stars
comments

Unwell Bass Tab

unwell
bass tab

it's actually played on 5 strings.. I only got 4 stings bass guitar so
i tabbed it on 4 strings.
just tune your bass guitar on dropped D, i promise, it's sounds the same on
5 strings bass guitar.

intro:
G|------------------------------------|
D|------------------------------------|
A|------------------------------------| 2x
D|-7--7-7-7---0---4--4-4-4---2--2-2-2-|

verse:
G|---------------------|
D|---------------------|
A|---------------------|
D|-0--2--7--4--0--2--4-|

G|-----------------------------------|
D|-----------------------------------|
A|-----------------------------------|
D|-0--2--7--4----0--0-0--2--2-2-2--2-|

pre-chorus:
G|----------------|
D|----------------|
A|-4---5----------| 2x
D|---------7---2--|
[ Tab from: http://www.guitartabs.cc/tabs/m/matchbox_20/unwell_btab_ver_3.html ]
chorus:
G|------------------------------------|
D|------------------------------------|
A|------------------------------------| 2x
D|-7--7-7-7---0---4--4-4-4---2--2-2-2-|

repeat verse:
pre-chorus:
chorus:

bridge:
G|---------------------------------------------------------------------|
D|---------------------------------------------------------------------|
A|---------------------------------------------------------------------|
D|-00000000--44444444--00000000--444444444--00000000--2222222222222222-|

chorus: till fade:
G|------------------------------------|
D|------------------------------------|
A|------------------------------------|
D|-7--7-7-7---0---4--4-4-4---2--2-2-2-|

G|------------------------------------|
D|------------------------------------|
A|------------------------------------|
D|-7--7-7-7---0---4--4-4-4---2-4-6-9--|

G|------------------------------------|
D|------------------------------------|
A|------------------------------------|
D|-7--7-7-7---0---4--4-4-4---2--2-2-2-|
Comments