Matchbox 20 - Unwell Chords & Tabs

 

Unwell Chords & Tabs

Matchbox 20 Chords & Tabs

Version: 2 Type: Bass Tab 0 ratings
1 star 2 stars 3 stars 4 stars 5 stars
comments

Unwell Bass Tab

-----------------------------------------------------------------------------
			     Unwell - Matchbox 20
-----------------------------------------------------------------------------

Tabbed By : Alex Wagner
e-mail: s8r4life@comcast.net

this is my first tab so cut me some slack.  i got most of this song down and i
sounds pretty close.  i'm also playing on a five string bass and i have no clue
what the bass playing for Matchbox 20 plays.


G|---------------------------------------
D|---------------------------------------
A|---------------------------------------
E|-5--5-5-5------------2--2-2-2--0--0-0-0  repeat 2x
B|--------------3------------------------

G|-------------------------------------------
D|-------------------------------------------
A|-------------------------------------------
E|------0------5------2--------------0------2
B|-3--------------------------3--------------

G|---------------------------------------------------
D|---------------------------------------------------
A|---------------------------------------------------
E|------0------5------2-----------------0-0--0--0---0
B|-3--------------------------3--3-3-----------------


G|---------------------
D|---------------------
A|-4----5--------------
E|-------------5------0  repeat 2x
B|---------------------

G|---------------------------------------
D|---------------------------------------
A|---------------------------------------
E|-5--5-5-5------------2--2-2-2--0--0-0-0  repeat 2x
B|--------------3------------------------


[ Tab from: http://www.guitartabs.cc/tabs/m/matchbox_20/unwell_btab_ver_2.html ]
G|-------------------------------------------
D|-------------------------------------------
A|-------------------------------------------
E|------0------5------2--------------0------2
B|-3--------------------------3--------------

G|---------------------------------------------------
D|---------------------------------------------------
A|---------------------------------------------------
E|------0------5------2-----------------0-0--0--0---0
B|-3--------------------------3--3-3-----------------


G|---------------------
D|---------------------
A|-4----5--------------
E|-------------5------0  repeat 2x
B|---------------------


G|---------------------------------------
D|---------------------------------------
A|---------------------------------------
E|-5--5-5-5------------2--2-2-2--0--0-0-0  repeat 2x
B|--------------3------------------------

G|-----------------------------------------------------------------------
D|-----------------------------------------------------------------------
A|-----------------------------------------------------------------------
E|----------22222222----------22222222----------22222222-0000000000000000
B|-33333333----------33333333----------33333333--------------------------

G|---------------------------------------
D|---------------------------------------
A|---------------------------------------
E|-5--5-5-5------------2--2-2-2--0--0-0-0
B|--------------3------------------------

G|---------------------------------------
D|---------------------------------------
A|---------------------------------------
E|-5--5-5-5------------2--2-2-2---0-2-4-7
B|--------------3------------------------

G|---------------------------------------
D|---------------------------------------
A|---------------------------------------
E|-5--5-5-5------------2--2-2-2--0--0-0-0  repeat until fades out
B|--------------3------------------------
Comments