Matchbox 20 - Unwell Chords & Tabs

 

Unwell Chords & Tabs

Matchbox 20 Chords & Tabs

Version: 1 Type: Bass Tab 0 ratings
1 star 2 stars 3 stars 4 stars 5 stars
comments

Unwell Bass Tab

Unwell (acoustic version)
Matchbox Twenty
Transcribed by: Louie A. Ebojo
Email: ebbskyz@yahoo.com


Tuning: Original key is 1/2 note lower, i.e. Ab. Tune your guitar down         to Eb Ab Db Gb Bb Eb.

Chords:Legend:
Ax02220
A9x02200h = hammer on
Dsus2xx0230p = pull off
F#msus4244000/ = slide up
E022100 = slide down
Esus2024100
C#m7x46454


This version is good for a solo acoustic guitar. Enjoy!


Intro:

e|----0h2-5-7p5-2-0---|---0h2-5-7p5-2/5---|---7p5-2-0--0h2-5-7p5-----
B|----0h2-5-7p5-2-0---|---0h2-5-7p5-2/5---|---7p5-2-0--0h2-5-7p5-----
G|--------------------|-------------------|--------------------------
D|--------------------|-------------0-----|--------------------------
A|----0---------------|-------------------|--------------------------
E|--------------------|-------------------|--------------------------

[ Tab from: http://www.guitartabs.cc/tabs/m/matchbox_20/unwell_btab.html ]
e|----0h2-5-2-------------0-------------------0----
B|----0h2-5-2--2-------------0-------------0-------
G|----------------2-------------1-----1h2----------
D|----------4--------4----2--------2---------------
A|-------------------------------------------------
E|-------------------------------------------------


e|----0h2-5-7p5-2-0---|---0h2-5-7p5-2/5---|---7p5-2-0--0h2-5----
B|----0h2-5-7p5-2-0---|---0h2-5-7p5-2/5---|---7p5-2-0--0h2-5----
G|--------------------|-------------------|---------------------
D|--------------------|-------------0-----|---------------------
A|----0---------------|-------------------|---------------------
E|--------------------|-------------------|---------------------


e|-----2-----5--2-------------0-------------------0----
B|-----2--5--5--2--2-------------0-------------0-------
G|--------------------2-------------1-----1h2----------
D|-----4--4-----4--------4----2--------2---------------
A|-----------------------------------------------------
E|-----------------------------------------------------
Comments