Matchbox 20 - The Difference Chords & Tabs

 

The Difference Chords & Tabs

Matchbox 20 Chords & Tabs

Version: 1 Type: Chords 0 ratings
1 star 2 stars 3 stars 4 stars 5 stars
comments

The Difference Chords

   
#----------------------------------PLEASE NOTE---------------------------------#
#This file is the author's own work and represents their interpretation of the #
#song. You may only use this file for private study, scholarship, or research. #
#------------------------------------------------------------------------------#
#------------------------------------------------------------------------------#
#-- File created with Instab - http://www.pconline.com/~smcarey/instab.html ---#
#------------------------------------------------------------------------------#

Author/Artist: Matchbox 20
Title: The Difference
Album: More Than You Think You Are
Transcribed by: Steve G.
Email: crowned_01@hotmail.com

This song is played on the acoustic guitar
Standard tuning
G: 320003 
G*:  320033
C:  x32010
D:  xx0232
C9:  x32033
Em:  022030


Intro: Single strum chords
          G, C, G, C, G, D, G--listen for timing

Verse 1:

--3------------------0-----3-----------0-----3-----------------2------3-------
--0------------------1-----0-----------1-----0-----------------3------0-------
--0------------------0-----0-----------0-----0-----------------2------0-------
--0------------------2-----0-----------2-----0-----------------0------0-------
--2------------------3-----2-----------3-----2-----------------x------2-------
--3------------------x-----3-----------x-----3-----------------x------3-------
 

-------3-------------------------0------3-----------0-----3-------------------
-------0-------------------------1------0-----------1-----0-------------------
-------0-------------------------0------0-----------0-----0-------------------
-------0-------------------------2------0-----------2-----0-------------------
-------2-------------------------3------2-----------3-----2-------------------
-------3-------------------------x------3-----------x-----3-------------------
  

-----2--------3----------------------------------------3----------------------
-----3--------0----------------------------------------3----------------------
-----2--------0----------------------------------------0----------------------
-----0--------0----------------------------------------2----------------------
-----x--------2----------------------------------------3----------------------
-----x--------3----------------------------------------x----------------------
     

-----0------------------------2-------------------------3---------------------
-----3------------------------3-------------------------3---------------------
-----0------------------------2-------------------------0---------------------
-----2------------------------0-------------------------0---------------------
-----2------------------------x-------------------------2---------------------

-----0------------------------x-------------------------3---------------------  

---------3-----------------------0--------------------------2-----------------
---------3-----------------------3--------------------------3-----------------
---------0-----------------------0--------------------------2-----------------
---------2-----------------------2--------------------------0-----------------
---------3-----------------------2--------------------------x-----------------
---------x-----------------------0--------------------------x-----------------
              

-----------------------------------3--------3------0------2-------------------
-----------------------------------3--------3------3------3-------------------
-----------------------------------0--------0------0------2-------------------
-----------------------------------0--------2------2------0-------------------
-----------------------------------2--------3------2------x-------------------
-----------------------------------3--------x------0------x-------------------
 (Struming Rythm)(CHOURS):  And for all you know.                             

---3----------3----0-----2---------3----------3-------2--------3--------------
---3----------3----3-----3---------3----------3-------3--------3--------------
---0----------0----0-----2---------0----------0-------2--------0--------------
---0----------2----2-----0---------0----------2-------0--------0--------------
---2----------3----2-----x---------2----------3-------x--------2--------------
---3----------x----0-----x---------3----------x-------x--------3--------------
   This could be.              The difference between what you need           
[ Tab from: http://www.guitartabs.cc/tabs/m/matchbox_20/the_difference_crd.html ]
--------0----------------3--------0----------------3--------------------------
--------3----------------3--------3----------------0--------------------------
--------0----------------0--------0----------------0--------------------------
--------2----------------2--------2----------------0--------------------------
--------2----------------3--------2----------------2--------------------------
--------0----------------x--------0----------------3--------------------------
    and what you want to be, girl what you want to be.    (REPEAT INTRO)      

----------3----------------------0-------3------------0-----3-----------------
----------0----------------------1-------0------------1-----0-----------------
----------0----------------------0-------0------------0-----0-----------------
----------0----------------------2-------0------------2-----0-----------------
----------2----------------------3-------2------------3-----2-----------------
----------3----------------------x-------3------------x-----3-----------------
 Verse 2    

--2---------3---------3-----------------------0------3-------------0----3-----
--3---------0---------0-----------------------1------0-------------1----0-----
--2---------0---------0-----------------------0------0-------------0----0-----
--0---------0---------0-----------------------2------0-------------2----0-----
--x---------2---------2-----------------------3------2-------------3----2-----
--x---------3---------3-----------------------x------3-------------x----3-----
  

-----3-------3-------------------------------------3--------------------------
-----3-------0-------------------------------------3--------------------------
-----2-------0-------------------------------------0--------------------------
-----0-------0-------------------------------------2--------------------------
-----x-------2-------------------------------------3--------------------------
-----x-------3-------------------------------------x--------------------------
    

-------0-----------------------2----------------------------3-----------------
-------3-----------------------3----------------------------3-----------------
-------0-----------------------2----------------------------0-----------------
-------2-----------------------0----------------------------0-----------------
-------2-----------------------x----------------------------2-----------------
-------0-----------------------x----------------------------3-----------------
  

-------3---------------------0----------------------------2-------------------
-------3---------------------3----------------------------3-------------------
-------0---------------------0----------------------------2-------------------
-------2---------------------2----------------------------0-------------------
-------3---------------------2----------------------------x-------------------
-------x---------------------0----------------------------x-------------------
  

-------3--------3---------2---3------------3---------2-----3------------------
-------3--------3---------3---3------------3---------3-----3------------------
-------0--------0---------2---0------------0---------2-----0------------------
-------0--------2---------0---0------------2---------0-----0------------------
-------2--------3---------x---2------------3---------x-----2------------------
-------3--------x---------x---3------------x---------x-----3------------------
           

------3----------2--------3------2------------3-------------------------------
------3----------3--------3------3------------3-------------------------------
------0----------2--------0------2------------0-------------------------------
------2----------0--------0------0------------2-------------------------------
------3----------x--------2------x------------3-------------------------------
------x----------x--------3------x------------x-------------------------------
                            

-------------------------------------------3-------------------0-----3--------
-------------------------------------------0-------------------1-----0--------
-------------------------------------------0-------------------0-----0--------
-------------------------------------------0-------------------2-----0--------
-------------------------------------------2-------------------3-----2--------
-------------------------------------------3-------------------x-----3--------
 Verse 3:(single strum like intro)         Day breaking on the boule-vard ....    

----------0---3---------------2-----3------------3--------------------0-------
----------1---0---------------3-----0------------0--------------------1-------
----------0---0---------------2-----0------------0--------------------0-------
----------2---0---------------0-----0------------0--------------------2-------
----------3---2---------------x-----2------------2--------------------3-------
----------x---3---------------x-----3------------3--------------------x-------
 

------3------------------2------------------0---------------------------------
------0------------------3------------------1---------------------------------
------0------------------2------------------0---------------------------------
------0------------------0------------------2---------------------------------
------2------------------x------------------3---------------------------------
------3------------------x------------------x---------------------------------
 your face and you think maybe someday yeah maybe someday.*REPEAT CHOURS-END* 
Comments