Matchbox 20 - Shame Chords & Tabs

 

Shame Chords & Tabs

Matchbox 20 Chords & Tabs

Version: 1 Type: Tab 0 ratings
1 star 2 stars 3 stars 4 stars 5 stars
comments

Shame Tab

Just quickly figured out a few parts of this song. If I figure out
any more I'll post it.

[ Tab from: http://www.guitartabs.cc/tabs/m/matchbox_20/shame_tab.html ]
Intro
------------------------------
-------7-----------7----------
-----8----8----9------9-------
---9--------9----9------9-----
-9------------------------7---
------------------------------


 Little Riff at 0:34:
  -----------------------------
  -9-----9--------9---9------7--
  ---8----------8---8---8----8--
  -----9---------------------9--
  ---------------------------9--
  ------------------------------
...good   to  you            Shame...
Comments