Matchbox 20 - Rest Stop Chords & Tabs

 

Rest Stop Chords & Tabs

Matchbox 20 Chords & Tabs

Version: 1 Type: Tab 0 ratings
1 star 2 stars 3 stars 4 stars 5 stars
comments

Rest Stop Tab

   
#----------------------------------PLEASE NOTE---------------------------------#
#This file is the author's own work and represents their interpretation of the #
#song. You may only use this file for private study, scholarship, or research. #
#------------------------------------------------------------------------------#

Artist : Matchbox 20
Title  : Rest Stop 
Album  : Mad Season

Originally transcribed by: Ryan Short. Guitar solo transcribed by: Ryan Short.
All fills transcribed by: Jason Vertucio. Intro by: Jason Vertucio. Slight
lyric fixes by: Jason Vertucio.

This is it. Just for you guys here at guitartabs.cc!

I had sent in a file with just the fills but today decided to include a whole
file instead, so that everyone can see how they fit together. And remember,
my fills don't have any real sense of rhythm to them and are pretty sloppily
done. So I hope this is readable. Enjoy! -Jason


INTRO

Arr. for one guitar: Em (022003), G (32003), D (xx0233), Em (022003)

VERSE

(Just three miles, from the rest stop)


PRE-CHORUS

              
(Well I don't wanna be cold, I don't wanna be cruel)


Fill 1.
e|-1------0-----0--------------|
B|----------------1------------|
G|---0----------------0--------|
D|-----------------------------|
A|-----------------------------|
E|-----------------------------|

CHORUS
                                                
(She said, "While you were sleeping)
                                                          

Fill 2. (strings arr. for guitar)
e|--3---2--------------|
B|----------3-------0--|
G|--------------2--(0)-|
D|-----------------(2)-|
A|---------------------|
E|---------------------|


 
VERSE (same; add fills)
(Just 3 miles from the rest stop)
                

Fill 3.Fill 3a.
e|----------------------------|e|----------|
B|----------------------------|B|----------|
G|----------------------------|G|----------|
D|--0h2--2-0------------------|D|--0h2--2--|
A|-----------2----------------|A|----------|
E|-------------3-----3--2--0--|E|----------|

PRE-CHORUS
[ Tab from: http://www.guitartabs.cc/tabs/m/matchbox_20/rest_stop_tab.html ]
(But she knew all the words that I never had said)


Fill 1a.
e|-1-----1-0--------|
B|---1-------1------|
G|-----0-------0----|
D|------------------|
A|------------------|
E|------------------|

CHORUS

She said, "While you were sleeping" ect)

SOLO

Chords: C, D, C, D (x2)   (played by the strings)

Guitar 1 (distortion)
e|--------------------------------------------------------------|
B|--------------------------------------------------------------|
G|----------------7----------------------/9--7------------------|
D|--5--7----5--7-------------------5--7-------------------------|
A|--------------------------------------------------------------|
E|--------------------------------------------------------------|
Guitar 2 (clean)
e|--------------------------------------------------------------|
B|--------------------------------------------------------------|
G|--------------------------------------------------------------|
D|--------------------------------------------------------------|
A|-----------------10--12--14--12---------------10--12--14--12--|
E|--------------------------------------------------------------|

Guitar 1      (ring)
e|----------------------------10--10--10--/15-------------|
B|--------------------------------------------------------|
G|--------/9--7----------------7---7---7--/12-------------|
D|--5--7--------------------------------------------------|
A|--------------------------------------------------------|
E|--------------------------------------------------------|
Guitar 2
e|--------------------------------------------------------|
B|--------------------------------------------------------|
G|--------------------------------------------------------|
D|---------------10--9--7---------------------------------|
A|--------------------------------------------------------|
E|--------------------------------------------------------|


CHORUS

(She said...)


OUTRO

fade out with A  Asus4 and fill4

Fill 4.
e|----------|
B|----2---3-|
G|-2--------|
D|-2--------|
A|-0--------|
E|----------|
Comments