Matchbox 20 - Real World Chords & Tabs

 

Real World Chords & Tabs

Matchbox 20 Chords & Tabs

Version: 3 Type: Tab 0 ratings
1 star 2 stars 3 stars 4 stars 5 stars
comments

Real World Tab

   
-------------------------------------------------------------------------------
			     Real World - Matchbox 20
-------------------------------------------------------------------------------
Tabbed by:Zach
Email: caribbean_bud@yahoo.com
For a long time i looked for a good tab, but never
found one, so i took on the challenge

Tuning:Standard

1st guitar, medium distortion. Intro solo, prechorus, outro
e|3-1---------3-1---------3-1----------------------------------------------|
B|----3-1---------3-1------------------------------------------------------|
G|--------3-3---------3-3--------------------------------------------------|
D|-------------------------------------------------------------------------|
A|-------------------------------------------------------------------------|
E|-------------------------------------------------------------------------|

2nd guitar. relatively same distortion
G-G-D-Em-Em-C Throughout verse, Solo
[ Tab from: http://www.guitartabs.cc/tabs/m/matchbox_20/real_world_tab_ver_3.html ]
1st guitar, post-chorus solo
e|1-1-1-1-1-1-1-1-1-1-1----------------------------------------------------|
B|-------------------------------------------------------------------------|
G|-------------------------------------------------------------------------|
D|-------------------------------------------------------------------------|
A|-------------------------------------------------------------------------|
E|-------------------------------------------------------------------------|

2nd guitar chorus
G-G-C-D-D repeat
1st guitar chorus (starting after 2nd round of chords)
e|3------------------------------------------------------------------------|
B|--1-----at beginning of each round---------------------------------------|
G|-------------------------------------------------------------------------|
D|-------------------------------------------------------------------------|
A|-------------------------------------------------------------------------|
E|-------------------------------------------------------------------------|
1st guitar solo
e|--------------1~3~6~1~3~5~6~---------------------------------------------|
B|--1~3~----1~3~-----------------------------------------------------------|
G|3~----3~3~---------------------------------------------------------------|
D|-------------------------------------------------------------------------|
A|-------------------------------------------------------------------------|
E|-------------------------------------------------------------------------|



| /  slide up
| \  slide down
| h  hammer-on
| p  pull-off
| ~  vibrato
| +  harmonic
| x  Mute note
===============================================================================
Comments