Matchbox 20 - Push Chords & Tabs

 

Push Chords & Tabs

Matchbox 20 Chords & Tabs

Version: 2 Type: Chords 0 ratings
1 star 2 stars 3 stars 4 stars 5 stars
comments

Push Chords

   
Matchbox 20
Push
Tabbed By : Dysfunctional03


1) Intro:

 G maj.        D/F #         E min.     C maj. (add 9)

---3---3--------2---2--------0---0--------3---3---------------------------------
---3---3--------3---3--------0---0--------3---3---------------------------------
---0---0--------2---2--------0---0--------0---0---------------------------------
---0---0--------0---0--------2---2--------2---2---------------------------------
---2---2--------x---x--------2---2--------3---3---------------------------------
---3---3--------2---2--------0---0----------------------------------------------

2) Verse 1:

D maj.   C maj.    D maj.         C maj.   D maj.   C maj. 

---2--------0---------2---------------0-------2-------0----------------
---3--------1---------3---------------1-------3-------1----------------
---2--------0---------2---------------0-------2-------0----------------
---0--------2---------0---------------2-------0-------2----------------
------------3-------------------------3---------------3----------------
----------------------------------------------------------------------- 


3) Chorus:
[ Tab from: http://www.guitartabs.cc/tabs/m/matchbox_20/push_crd_ver_2.html ]
  G maj.   D maj.   C maj.    D maj.   G maj.   D maj.   C maj.     D maj.

---3---3------2------0---0------2------3---3------2------0---0------2---2------
---3---3------3------1---1------3------3---3------3------1---1------3---3------
---0---0------2------0---0------2------0---0------2------0---0------2---2------
---0---0------0------2---2------0------0---0------0------2---2------0---0------
---2---2-------------3---3-------------2---2-------------3---3-----------------
---3---3-------------------------------3---3-----------------------------------


4) Verse 2:

E min. D maj. C maj.  D maj.   E min. D maj. C maj. D maj.

---0-----2-----0-----2---2---2-----0-----2-----0-----2-------------------------
---0-----3-----1-----3---3---3-----0-----3-----1-----3-------------------------
---0-----2-----0-----2---2---2-----0-----2-----0-----2-------------------------
---2-----0-----2-----0---0---0-----2-----0-----2-----0-------------------------
---2-----------3-------------------2-----------3-------------------------------
---0-------------------------------0-------------------------------------------
Comments