Matchbox 20 - Bright Lights Chords & Tabs

 

Bright Lights Chords & Tabs

Matchbox 20 Chords & Tabs

Version: 1 Type: Chords 0 ratings
1 star 2 stars 3 stars 4 stars 5 stars
comments

Bright Lights Chords

   
#----------------------------------PLEASE NOTE---------------------------------#
#This file is the author's own work and represents their interpretation of the #
#song. You may only use this file for private study, scholarship, or research. #
#------------------------------------------------------------------------------#

MATCHBOX TWENTY - BRIGHT LIGHTS

By: Danny
Email: Dannystar172000@yahoo.com

Chords

      Asus4   E     F#m    C#m       D     A    B
[ Tab from: http://www.guitartabs.cc/tabs/m/matchbox_20/bright_lights_crd.html ]
e|----0-------0-------2------4-------2-----0----2------------------------------|
B|----3-------0-------2------5-------3-----2----4------------------------------|
G|----2-------1-------2------6-------2-----2----4------------------------------|
D|----2-------2-------4------6-------0-----2----4------------------------------|
A|----0-------2-------4------4-------X-----0----2------------------------------|
E|----X-------0-------2------X-------X-----X----X------------------------------|

Fill 1:
      B  C  C#m
e|----------4-----------------------|
B|----------5-----------------------|
G|----------6-----------------------|
D|----4--5--6-----------------------|
A|----2--3--4-----------------------|
E|----------------------------------|
Comments