Matchbox 20 - Breakfast At Tiffanys Chords & Tabs

 

Matchbox 20 Chords & Tabs

Version: 1 Type: Bass Tab 0 ratings
1 star 2 stars 3 stars 4 stars 5 stars
comments

Breakfast At Tiffanys Bass Tab

   
Breakfast At Tiffany's Bass Tab and chords by Deep Blue Something

Song: Breakfast At Tiffany-s
Group: Deep Blue Something
Album: Home
Tabbed by Nathan McKillion

On this tab u just have 2 work your way down the page from the intro to the solo/bridge
and the first few tabs on the page show u how 2 play the INTRO, CHORUS, BRIDGE, VERSE so
just follow the page! 
If you got any problems just email me at: Bigassbassplayer@hotmail.com

Intro:	    D           G    A
G|----------7-----7-7----------------------------------|
D|----------------------5~~~~7-------------------------|
A|-----------------------------------------------------| x4
E|-----------------------------------------------------|
[ Tab from: http://www.guitartabs.cc/tabs/m/matchbox_20/breakfast_at_tiffanys_btab.html ]
Chorus:     D                 A           G
G|----------7-77--7-77--7-77------------------------------|
D|----------------------------5-55-5-55---7-77-7-77-------|
A|--------------------------------------------------------| x4
E|--------------------------------------------------------|

Solo/Bridge: D                 A           G
G|----------7-77--7-77--7-77------------------------------|
D|-----------------------------5-55-5-55---7-77-7-77------|
A|--------------------------------------------------------| x2
E|--------------------------------------------------------|

Verse:      D                  G             A
G|----------7-77--7-77--7-77------------------------------|
D|----------------------------7-77-7-77----5-55-5-55------|
A|--------------------------------------------------------| x8
E|--------------------------------------------------------|

Chorus:  X4

Intro:	X8    

Chorus: X4

Solo/Bridge: X2

Chorus:  X4

Solo/Bridge: X2
Comments