Matchbox 20 - Back To Good (intro) Chords & Tabs

 

Matchbox 20 Chords & Tabs

Version: 1 Type: Chords 0 ratings
1 star 2 stars 3 stars 4 stars 5 stars
comments

Back To Good (intro) Chords

   
#----------------------------------PLEASE NOTE---------------------------------#
#This file is the author's own work and represents their interpretation of the #
#song. You may only use this file for private study, scholarship, or research. #
#------------------------------------------------------------------------------#

This is a great Matchbox 20 song that was inspired by watching a bunch of drunk people in a bar at 2:00 in the morning.  I think it reflects some people too well.
[ Tab from: http://www.guitartabs.cc/tabs/m/matchbox_20/back_to_good_intro_crd.html ]
No capo, standard tuning.

D(2320xx) Cadd9(010233) G(300023) A(02220x) Bm(234422)  



Intro:
   D      - Cadd9
E-----------------------------
B--------3-------------3------
G-----2-------------0---------
D--0-------------2------------
A------------3----------------
E-----------------------------


   G
E---------------
B-----------3-~-
G---------0-----
D------0--------
A---------------
E---3-----------
Comments