Matchbox 20 - All Your Reasons Chords & Tabs

 

Matchbox 20 Chords & Tabs

Version: 1 Type: Tab 0 ratings
1 star 2 stars 3 stars 4 stars 5 stars
comments

All Your Reasons Tab

   
From Exile On Mainstream

Standard Tuning with a capo on the second fret

              A                               Dsus2
E|-0-0-0-0--0-0-0--0-0-0-0-0-0-|-0-0-0-0--0-0-0--0-0-0-0-0-0-|
B|-2-2-2-2--2-2-2--2-2-2-2-2-2-|-3-3-3-3--3-3-3--3-3-3-3-3-3-|
G|-2-2-2-2--2-2-2--2-2-2-2-2-2-|-2-2-2-2--2-2-2--2-2-2-2-2-2-|
D|-2-2-2-2--2-2-2--2-2-2-2-2-2-|-0-0-0-0--0-0-0--0-0-0-0-0-0-|
A|-0-0-0-0--0-0-0--0-0-0-0-0-0-|-----------------------------|
E|-----------------------------|-----------------------------|
  Ba Da Da Da Ba Ba Ba Ba Du Ba  Ba Da Da Da Ba Ba Ba Ba Du

A
Ba Da Da Da Ba Ba Ba Ba Du Ba
Dsus2
Ba Da Da Da Ba Ba Ba Ba Du

A                      Dsus2
Why don't you just go away
A                      Dsus2
I can't seem to get my head straight
A                         Dsus2
There's so much I need to say
A                 Dsus2
It could take all Day

              A
Yeah but what you got, I don't need it
        Dsus2
I can't listen to all your reasons
A
Wake up, I don't feel it
        Dsus2
I can't listen to all your reasons

A                            Dsus2
You're bad mood just ties my hands

Riff 1 (not relative to capo)
E|-14-12-11---------------------|
B|----------12--12----9-12-9----|
G|-----------------11--------11-|
D|------------------------------|
A|------------------------------|
E|------------------------------|

A                         Dsus2
Turns my cartwheels into head stands

Riff 2 (not relative to capo)
E|-14-12-11----------------9-11-|
B|----------12--12----9-12------|
G|-----------------11-----------|
D|------------------------------|
A|------------------------------|
E|------------------------------|

A                     Dsus2
I've done everything I can
A          Dsus2
Gave All i had

              A
Yeah but what you got, I don't need it
        Dsus2
I can't listen to all your reasons
A
Wake up, I don't feel it
        Dsus2
I can't listen to all your reasons
[ Tab from: http://www.guitartabs.cc/tabs/m/matchbox_20/all_your_reasons_tab.html ]
              C#                           B
E|---------------------------|---------------------------|
B|---------------------------|---------------------------|
G|-6--6-6--6-6-6--6-6-6--6-6-|-4--4-4--4-4-4--4-4-4--4-4-|
D|-x--x-x--x-x-x--x-x-x--x-x-|-x--x-x--x-x-x--x-x-x--x-x-|
A|-4--4-4--4-4-4--4-4-4--4-4-|-2--2-2--2-2-2--2-2-2--2-2-|
E|---------------------------|---------------------------|
Why--                           --yy

Dsus2
You don't help me none
So warn down, so torn up
Still in Love

(not relative to capo)
                          A                                   Dsus2
E|-----------------------------------------------------------------------|
B|-16--16-16--16-16--14h16-16-16--16-16--14h16-16-16--16-16--17-17-17-16-|
G|-16--16-16--16-16--16----16-16--16-16--16----16-16--16-16--16-16-16-16-|
D|-----------------------------------------------------------------------|
A|-----------------------------------------------------------------------|
E|-----------------------------------------------------------------------|
 Yeah what you got, I don't need it      I can't listen to all your reasons

                          A                                   Dsus2
E|-----------------------------------------------------------------------|
B|-16--16-16--16-16--14h16-16-16--16-16--14h16-16-16--16-16--17-17-17-17-|
G|-16--16-16--16-16--16----16-16--16-16--16----16-16--16-16--16-16-16-16-|
D|-----------------------------------------------------------------------|
A|-----------------------------------------------------------------------|
E|-----------------------------------------------------------------------|
 Wake up, I don't feel it                I can't listen to all your reasons

A
Woman, I don't need it
         Dsus2
I can't listen to all your reasons
A
Wake up, I don't feel it
        Dsus2
I can't listen to all your reasons

A
Why (Ba Da Da Da Ba Ba Ba Ba Du Ba)
Dsus2
Tell me why (Ba Da Da Da Ba Ba Ba Ba Du)
A
Tell me why (Ba Da Da Da Ba Ba Ba Ba Du Ba)
Dsus2
Tell me why (Ba Da Da Da Ba Ba Ba Ba Du)
(End on A)
oh baby Tell me why 
Comments