Matchbox 20 - 3 Am Chords & Tabs

 

Matchbox 20 Chords & Tabs

Version: 1 Type: Tab 0 ratings
1 star 2 stars 3 stars 4 stars 5 stars
comments

3 Am Tab

   
#----------------------------------PLEASE NOTE---------------------------------#
#This file is the author's own work and represents their interpretation of the #
#song. You may only use this file for private study, scholarship, or research. #
#------------------------------------------------------------------------------#
#

Title: 3 am
Artist: Matchbox20
Album: Youself or Someone Like You
1996 Atlantic Recording
Transcriber: Travis Link
             tbl107@psu.edu
             4/2/97
Comments: Any questions or corrections can be sent to me. This is
my first attempt at tabbing on a computer so I hope this turns out
ok. Also this represents my work and is intended for private or
scholarly use only!

CAPO ON 1st FRET!! All tabs are relative to the capo!
Listen to song for timing!

Chords: G Cadd2 D
        3   3   2
        3   3   3
        0   0   2
        0   2   0
        2   3   x
        3   x   x

Intro:

   G    Cadd2                  G    Cadd2

E----------------------------------------------3------------------
B------------------------------------------------3----------------
G----------------------0---------------------------0--------------
D-----------------0h2---------------------------------------------
A-----------------------------------------------------------------
E-----------------------------------------------------------------

Verse 1&2:

   G    Cadd2                        she says its cold outside 
  (a few times)                      and hands me her raincoat..
E-----------------------------------------2------------0----------
B---------------------------------------3---3--------3---3--------
G----------------------------0--------2-------2----2-------2-----0
D-----------------------0h2---------0------------0-----------0h2--
A------------------0h2--------------------------------------------
E-----------------------------------------------------------------
(REPEAT THIS 3 TIMES FOR 1st THREE LINES OF THE 1st AND 2nd VERSES)


After 3rd line right before chorus:

and she only sleeps when its raining and she screams and her...

E----------------3------------0------------3------------2---------
B--------------2---2--------3---3--------3---3--------3---3-------
G------------0-------3----2-------2----2-------2----2-------2----0
D-----0h2-0-------------0------------0------------0-----------0h2-
A-0h2-------------------------------------------------------------
E-----------------------------------------------------------------



Chorus:
[ Tab from: http://www.guitartabs.cc/tabs/m/matchbox_20/3_am_tab.html ]
   Baby                   Its 3am I must be lonely
     G   D   Cadd2  D         (Repeat)
E-----------------------------------------------------------------
B-----------------------------------------------------------------
G--------------------------------------------------0--------------
D----------------------------------------------0h2----------------
A-----------------------------------------------------------------
E-----------------------------------------------------------------
NOW GO BACK TO BEGINNING FOR SECOND VERSE ITS THE SAME UNTIL THE
END OF THE SECOND CHORUS!



After Second Chorus:       little breakdown  
                              (a few times)
   (repeat 5 times)          G    Cadd2
E--------3--------------------------------------------------------
B------3---2------------------------------------------------------
G----2-------0------0---------------------------------------------
D--0------------0h2-----------------------------0h2--0------------
A-------------------------------------------0h2-------------------
E-----------------------------------------------------------------

     (Repeat this measure twice)             
                                              G   Cadd2
E---------2------------0------------------------------------------
B-------3---3--------3---3----------------------------------------
G-----2-------2----2-------2-------0------------------------------
D---0------------0-------------0h2--------------------------------
A-----------------------------------------------------------------

                                   
 
    (Nat Harms)        G   Cadd2     D          Cadd2
                                 But outside it starts raining...
E-----------------------------------------------------------------
B-------(7)-------------------------------------------------------
G-------(7)-------------------------------------------------------
D-------(7)-------------------------------------------------------
A-----------------------------------------------------------------
E-----------------------------------------------------------------

GO TO CHORUS THE OUTRO CHORUS IS NEXT!

Outro Chorus:

(repeat until the end)
               D    Cadd2    D
E-----------------------------------------------------------------
B-----------------------------------------------------------------
G--------0--------------------------------------------------------
D------0----------------------------------------------------------
A----2------------------------------------------------------------
E--3--------------------------------------------------------------
Comments