Matchbook Romance - The Greatest Fall Chords & Tabs

 

The Greatest Fall Chords & Tabs

Matchbook Romance Chords & Tabs

Version: 2 Type: Tab 0 ratings
1 star 2 stars 3 stars 4 stars 5 stars
comments

The Greatest Fall Tab

e----------0------0------------------
B-------4------4---------------------
G----4-------4-----------------------
D--2---------------------------------
A------------------------------------
E------------------------------------ repeat many times
[ Tab from: http://www.guitartabs.cc/tabs/m/matchbook_romance/the_greatest_fall_tab_ver_2.html ]
guitar 2

e-----------------------------------------
B---10/9------------------------------9---
G-----------9/11-----9/11------8--9-----9-
D-----------------------------------------
A-----------------------------------------
E-----------------------------------------
Comments