Matchbook Romance - Promise Chords & Tabs

 

Promise Chords & Tabs

Matchbook Romance Chords & Tabs

Version: 4 Type: Tab 0 ratings
1 star 2 stars 3 stars 4 stars 5 stars
comments

Promise Tab

Tunning: standard

e|----0--0--0--0--0----0--0--0--0--0----0--0--0--0--0----0--0--0--0--0-|
B|----0--0--0--0--0----0--0--0--0--0----0--0--0--0--0----0--0--0--0--0-|
G|---------------------------------------------------------------------|
D|--2---2--2--2--2-----------------------------------------------------| 2x
A|-------------------2---2--2--2--2---0---0--0--0--0---------0--2--2---|
E|-----------------------------------------------------2--4------------|
[ Tab from: http://www.guitartabs.cc/tabs/m/matchbook_romance/promise_tab_ver_4.html ]
e|----0--0--0--0--0----0--0--2--0--0----0--2--5--4--4------------------|
B|----0--0--0--0--0----0--0--2--0--0----0--2--5--4--4------------------|
G|---------------------------------------------------------------------|
D|--2---2--2--2--2--------------------------------------4--6--7~-/-2~--| 
A|-------------------2---2--2--2--2---0---0--0--0--0----4--6--7~-/-2~--|
E|------------------------------------------------------2--4--5~-/-0~--|

This is 100 % correct
any questions hit me up at dudedudedude25@aol.com
matchbook rules!
Comments