Matchbook Romance - Promise Chords & Tabs

 

Promise Chords & Tabs

Matchbook Romance Chords & Tabs

Version: 1 Type: Bass Tab

Promise Bass Tab

   
Artist: Matchbook Romance
Song: Promise
Album: Stories & Alibis
Submitted: Saturday, May 06 2006

down tuned, half step
(Eb Ab Db Gb)

ok, i finally finished this, the bridge may be a little off, but other than its totally correct

Intro: Play x4
g|------|--------|-----------|-------------------|
d|------|--------|--2--------|-------------------|
a|------|--------|-----2-----|-------------------|
e|------|---0----|--------4--|------------5-1----|

Verse:............................................1st time.........2nd time
g|---------------|---------------|---------------|---------------|----------|
d|---------------|---------------|---------------|---------------|----------|
a|---------------|-22-222-22-222-|-00-000-00-000-|-00-000-22-222-|----------|
e|-00-000-00-000-|---------------|---------------|---------------|-2-4-5-7--|

Pre-Chorus........................................1st time.........2nd time
g|---------------|---------------|---------------|---------------|----------|
d|---------------|---------------|---------------|---------------|----------|
a|---------------|-22-222-22-222-|-00-000-00-000-|-00-000-22-222-|---------7|
e|-00-000-00-000-|---------------|---------------|---------------|-2-4-5-7--|

[ Tab from: http://www.guitartabs.cc/tabs/m/matchbook_romance/promise_btab.html ]
Chorus
g|------------------------------------------------------------|
d|------------------------------------------------------------|
a|----------4444-2222-0000-2222---------4444-2222-0000-2222---|
e|---0---------------------------0----------------------------|

Pre-Chorus 2
g|----------------------|
d|----------------------|
a|---------4-2-0-----2--|
e|--0-------------------|

Chorus
g|------------------------------------------------------------|
d|------------------------------------------------------------|
a|----------4444-2222-0000-2222---------4444-2222-0000-2222---|
e|---0---------------------------0----------------------------|

Bridge 
g|-----------------------------------|----------------------|
d|-----------------------------------|----------------------|
a|-----------------------------------|-----------4--0---2---|
e|----0---------00-00---0------------|-------0--------------|

Bridge Pt. 2 
g|----------------------------------------------------|
d|----------------------------------------------------|
a|---------------444444444444-0000000000-22222222222--|
e|-0000000000000--------------------------------------|

Chorus
g|------------------------------------------------------------|
d|------------------------------------------------------------|
a|----------4444-2222-0000-2222---------4444-2222-0000-2222---|
e|---0---------------------------0----------------------------|

Ending

g|---------------|
d|---------------|
a|-----4--2---0--|
e|--0------------|