Mata Andrew - Forgoton Agin Chords & Tabs

 

Forgoton Agin Chords & Tabs

Mata Andrew Chords & Tabs

Version: 1 Type: Tab 1 rating
1 star 2 stars 3 stars 4 stars 5 stars
comments

Forgoton Agin Tab

   
Tabbed by:andrewmata	
Email:matamobster@yahoo.com
web site  www.americansilence.biz.ly
Tuning:E.B.G.D.A.E 
PLAY IT SLOWER THEN IT LOOKS I MADE IT LOOKI ROTE IT KIND
OF FAST KEEP PRACTICING YOU WILL GET IT
e|-0----2---3---5--5--3---2--0---3-2-5--3-2-0--0--0--0--0--0--0--0--0-|
B|----0---0---0------0--0--0---0--0-0-0--0-0--------------------------|
G|--------------------------------------------------------------------|
D|--------------------------------------------------------------------|
A|--------------------------------------------------------------------|
E|--------------------------------------------------------------------|
[ Tab from: http://www.guitartabs.cc/tabs/m/mata_andrew/forgoton_agin_tab.html ]
e|0-2-3-2-3-5-3-5-7-5-7-9--10--10-9--7--9-10--9--9-7--5-7-9-7-7-5--3-5-7--5-5|
B|0-0-0-0-0-0-0-0-0-0-0-0------0--0--0----0---0----0------0---0-0----0----0--|
G|---------------------------------------------------------------------------|
D|---------------------------------------------------------------------------|
A|---------------------------------------------------------------------------|
E|---------------------------------------------------------------------------|
                                       use index and thom to play all theses
e|-3-2-3-2-0-0-0-0-0H2-2---3H5-5----3-2-0--0-3-2-5-3-0-2-0--0-3-2-5-3-2-0|
B|-----------------------0-------0---0-0---0-0-0-0-0-0-0-0--0-0-0-0-0-0-0|
G|-----------------------------------------------------------------------|
D|-----------------------------------------------------------------------|
A|-----------------------------------------------------------------------|
E|-----------------------------------------0-0-0-0-0-0-0-0- 0-0-0-0-0-0-0|

e|0-2-3-2-5-2-3-2--0---0-0-23-0-2-23-5-2--3-5-7-5-3-5-3-3-2-0|
B|0-0-0-0-0-0-0-0--0---0-0-00-0-0-00-0-0--0-0-0-0-0-0-0-0-0-0|
G|-----------------------------------------------------------|
D|-----------------------------------------------------------|
A|-----------------------------------------------------------|
E|0-0-0-0-0-0-0-0--0---0-0-00-0-0-00-0-0--0-0-0-0-0-0-0-0-0-0x|

e|0-0--2-2--3-3--5-5--5-3-2-0-5-3-2-0--5-3-2-0--5--3--2--0--5--3--2--0|
B|---------------------0-0-0-0-0-0-0----0-0-0-----0--0-0---0--0-0---0-|
G|--------------------------------------------------------------------|
D|--------------------------------------------------------------------|
A|--------------------------------------------------------------------|
E|0-0--0-0--0-0--0-0--0-0-0-0-0-0-0-0--0-0-0-0--0--0--0--0--0--0--0--0|

e|---3--2--0-|
B|----0--0---|
G|-----------|x5 get slowerevery time 
D|-----------|
A|-----------|
E|---0--0--0-|
			
Comments