Mastodon - Seabeast Chords & Tabs

 

Seabeast Chords & Tabs

Mastodon Chords & Tabs

Version: 1 Type: Tab 0 ratings
1 star 2 stars 3 stars 4 stars 5 stars
comments

Seabeast Tab

   
"Seabeast"
Mastodon
Leviathan
copyright (c) Relapse records 2004
Tabbed by Noach Chancer
nchancer@globalsolutech.com

(in standard tuning down 1 step)
KEY:
/ = slide up
\ = slide down
h = hammer-on
p = pull-off
bu = bend up till note reaches note in parentheses
bd = bend down till note reaches note in parentheses

INTRO:
----------------------------------------------------------------------------|
----------0-------------0---------------0---------------0-------------------|
-------10---10-------10---10---------13---13---------13---13----------------|
-----0-------------0---------------0---------------0------------------------|
---9-------------9--------------12--------------12--------------------------|
-7-------------7-------------10--------------10-----------------------------|
(little solo thing during intro)
------7-9-10/14\10-9-7---7-9--7h9-10----------------------------------------|
-----7-----------------7----------------------------------------------------|
----7-----------------------------------------------------------------------|
---9------------------------------------------------------------------------|
--9-------------------------------------------------------------------------|
-7--------------------------------------------------------------------------|

------5-7-5---5-------------------------------------------------------------|
-----7------7---7-5-7bu(8)bd(7)-6-------------------------------------------|
----7-----------------------------------------------------------------------|
---9------------------------------------------------------------------------|
--9-------------------------------------------------------------------------|
-7--------------------------------------------------------------------------|

VERSE:
----------------------------------------------------------------------------|
----------------------------------------------------------------------------|
----------------------------------------------------------------------------|
----------------------------------------------------------------------------|
-5/8-8-8-8--5/7-7-7-7--4/5--8-8-8--5/8--5/7--5/8--5/7--8-8-8-8--5/7-7-7-7---|
-3/6-6-6-6--3/5-5-5-5--2/3--6-6-6--3/6--3/5--3/6--3/5--6-6-6-6--3/5-5-5-5---|

----------------------------------------------------------------------------|
----------------------------------------------------------------------------|
----------------------------------------------------------------------------|
----------------------------------------------------------------------------|
-4/5--8-8-8--5/8--5/7--5/8--5/7---------------------------------------------|
-2/3--6-6-6--3/6--3/5--3/6--3/5---------------------------------------------|

PRE-CHORUS:
----------------------------------------------------------------------------|
----------------------------------------------------------------------------|
----------------------------------------------------------------------------|
----------------------------------------------------------------------------|
-5/8--5/7--5/8--5/7--5-5-5-5--5/8--5/7--5/8--5/7--5-5-5-5-------------------|
-3/6--3/5--3/6--3/5--3-3-3-3--3/6--3/5--3/6--3/5--3-3-3-3-------------------|
[ Tab from: http://www.guitartabs.cc/tabs/m/mastodon/seabeast_tab.html ]
CHORUS:
----------------------------------------------------------------------------|
----------------------------------------------------------------------------|
----------------------------------------------------------------------------|
-9---9---9/10-10-10-10-9-7--9/10-10-10-10-9-7-------------------------------|
-7---7---7/8---8--8--8-7-5--7/8---8--8--8-7-5-------------------------------|
---0---0--------------------------------------------------------------------|
(harmony part during chorus)
----------------------------------------------------------------------------|
----------------------------------------------------------------------------|
----------------------------------------------------------------------------|
-13---13---13/14-14-14-14-13-11--13/14-14-14-14-13-11-----------------------|
-11---11---11/12-12-12-12-11--9--11/12-12-12-12-11--9-----------------------|
----------------------------------------------------------------------------|

SOLO THING DURING CHORUS:
-12-12-12-12-12-12--0--12-12-12-12-12-12--0---------------------------------|
--------------------------------------------------12-----------12-----------|
---------------------------------------------9h10----10p9--9h10--10p9-------|
---------------------------------------------------------9-----------9------|
----------------------------------------------------------------------------|
----------------------------------------------------------------------------|

-7---------7----------------------------------------------------------------|
-10bu(12)--10bu(12)------8-------------8------------------------------------|
---------------------4/5---5\4-----4/5---5\4--------------------------------|
---------------------------------7-----------7------------------------------|
----------------------------------------------------------------------------|
----------------------------------------------------------------------------|

INTERLUDE/OUTRO:
----------------------------------------------------------------------------|
----------------------------------------------------------------------------|
----------------------------------------------------------------------------|
-10-9-------------10--7--10-10-9-------------10--7--15-15-14----------------|
--8-7--------------8--5---8--8-7--------------8--5--13-13-12----------------|
------0-0-0-0-0-0----------------0-0-0-0-0-0-----------------0-0-0-0-0-0----|

----------------------------------------------------------------------------|
----------------------------------------------------------------------------|
----------------------------------------------------------------------------|
-10--7--10-10-9-------------------------------------------------------------|
--8--5---8--8-7-------------------------------------------------------------|
----------------0-0-0-0-0-0-------------------------------------------------|

Fill #1:
----------------------------------------------------------------------------|
----------------------------------------------------------------------------|
----------------------------------------------------------------------------|
-------5---5-7-8-7-5-------------5---5-7-8-7-5------------------------------|
-5-7-8---8-----------8-7-5-5-7-8---8-----------8-7-5------------------------|
----------------------------------------------------------------------------|

Fill#2
-------3---3-5-6-5-3-------------3---3-5-6-5-3------------------------------|
-3-5-6---6-----------6-5-3-3-5-6---6-----------6-5-3------------------------|
----------------------------------------------------------------------------|
----------------------------------------------------------------------------|
----------------------------------------------------------------------------|
----------------------------------------------------------------------------|

(I'm not positive about the fills because I cannot hear it clealy. This is
the closest I could get)

THE END
ENJOY!
Comments