Mastodon - Hearts Alive Chords & Tabs

 

Hearts Alive Chords & Tabs

Mastodon Chords & Tabs

Version: 1 Type: Bass Tab

Hearts Alive Bass Tab

Mastodon - Hearts Alive

tuning (low to high) - D G C F

Riff 1 x3
|---------------------------------------------------------------------------------|
|------------------------0h1---------0h1-------------------------------0h1--------|
|---------------------------------------------------------------------------------|
|-2h3--------2h3--------------------------------2h3--------2h3--------------------|
                                 (2nd & 3rd time)
|------------------------------------------------------------------------------|
|-0h1-----------------------------------(5)------------------------------------|
|------------0--------6--------0-(5h77)-----(7-5)-6--------0--------0h1--------|
|------------------------------------------------------------------------------|

|----------------------------------------------------------------------------------------|
|----------------------------2---------2-------------------------------------------------|
|--------------------------2---------3---------------------------------/3-------/3-------|
|-0h2--------0h2--------0---------1---------/6-------/3-------3/-------------------------|

Riff 2A x2
|-------------------------------------------------|
|-------------------------------------------------|
|-------------------------------------------------|
|-0h2-2-0h2-2-0h2-0h2-0h2-0h3-3-0h3-3-0h3-0h3-0h3-|

|-------------------------------------------------|
|-------------------------------------------------|
|-------------------------------------------------|
|-0h5-5-0h5-5-0h5-0h5-0h5-0h6-6-0h6-6-0h6-0h6-0h6-|

Riff 2B x1
|-------------------------------------------------------------------------------|
|-------------------------------------------------------------------------------|
|-------------------------------------------------------------------------------|
|-0h14-14-0h14-14-0h14-0h14-0h14-0h15-15-0h15-15-0h15-0h15-0h15-0h17-17-0h17-17-|

|------------------------------------------------------------------------------|
|------------------------------------------------------------------------------|
|------------------------------------------------------------------------------|
|-0h17-0h17-0h17-0h12-12-0h12-12-0h12-0h12-0h12-0h13-13-0h13-13-0h13-0h13-0h13-|

|---------------------------------------------------------------|
|---------------------------------------------------------------|
|---------------------------------------------------------------|
|-0h14-14-0h14-14-0h14-0h14-0h14-0h15-15-0h15-15-0h15-0h15-0h15-|

Riff 3 x4
|---------------------------------|
|----2-------2-------3------------|
|----------------------------5h7--|
|-0-------0-------1-------1-------|

Riff 4 x3
|-----------------7-7-----|
|---------7---7h9-----7-7-|
|-----7h9---9-------------|
|-5-4---------------------|

Fill 1 x1
|---------------------------------7/10----------------------|
|---------5-4-2------------3-----------9--------10------\---|
|-----3-2---------------------------------------------------|
|-5-4-------------------------------------------------------|

Riff 5 x4
|---------------------------|
|---------------------------|
|---------------------------|
|-7------------9--------8-9-|

Riff 6 x2
|-------------------------------------------------------------|
|-------------------------------------------------------------|
|-------------------------------------------------------------|
|-0000--0--0-0-0-1111--1--2-2-4-5555--5--5-5-5-8888--8--9-9-9-|

Riff 7 x2
|--------------------------------------------------------------------------|
|--------------------------------------------------------------------------|
|-777777777777666666667799101010101010101010101010131313131313141414141414-|
|--------------------------------------------------------------------------|

Riff 5 x4
[ Tab from: http://www.guitartabs.cc/tabs/m/mastodon/hearts_alive_btab.html ]
Fill 2 x1
|-----------------------------------------------------|
|-----------------------------------------------------|
|-----------------------------------------------7-5-4-|
|-8-----------7-----------5------------5--------------|

Repeat everything from Riff 3 to Fill 2

Riff 3 x6

Riff 4 x3

Fill 3 x1
|----------------------------------------------------|
|---------5-4---------5-4---------5-4----------------|
|-----3-2---------3-2---------3-2--------------------|
|-5-4---------5-4---------5-4---------0--0--0--------|

Riff 8 x1
|--------|--------|-----------|-----------|----------------|----------------|--------|
|--------|--------|-----------|-----------|----------------|----------------|--------|
|--------|--------|-----------|-----------|----------------|----------------|--------|
|--------|--------|-00--00----|-00--00----|-22--22-22--22--|-22--22-22--22--|--------|

|-----------|------|-----------------|-----------------|-----------------|-----------------|
|-----------|------|-----------------|-----------------|-----------------|-----------------|
|-----------|------|-----------------|-----------------|-----------------|-----------------|
|-00--00----|------|-22-20-22-20-222-|-22-20-22-20-222-|-44-42-44-42-444-|-44-42-44-42-444-|

|--------|-----------|--------|-----------------|-----------------|-----------------|
|--------|-----------|--------|-----------------|-----------------|-----------------|
|--------|-----------|--------|-----------------|-----------------|-----------------|
|--------|-00--00----|--------|-22-20-22-20-222-|-22-20-22-20-222-|-44-42-44-42-444-|

|-----------------|-----------------|-----------------|-----------------|-----------------|
|-----------------|-----------------|-----------------|-----------------|-----------------|
|-----------------|-----------------|-----------------|-----------------|-----------------|
|-44-42-44-42-444-|-22-20-22-20-222-|-22-20-22-20-222-|-44-42-44-42-444-|-44-42-44-42-444-|

|-----------------|-----------------|
|-----------------|-----------------|
|-----------------|-----------------|
|-22-20-22-20-222-|-22-20-22-20-222-|

Riff 9A x2
|-----------------------------------------|
|-----------------------------------------|
|-----------------------------------------|
|-5/3-1--5/3-1--5-3-1-5/3-1--5/3-1--5-3-1-|

Riff 9B x2
|---------------------------------------------------------------|
|---------------------------------------------------------------|
|---------------------------------------------------------------|
|-5/3-1--5/3-1--5/3-1--5/3-1--5/3-1--5/3-1--5/3-1--5/3-1--5-3-1-|

Riff 9A x2

Riff 10 x2
|-------------------------------------------------|
|-------------------3-2-0-------------------3-2-0-|
|-------2---3-2-5-3-------------2---3-2-5-3-------|
|-2-5-3---5---------------2-5-3---5---------------|

|-------------------3-2-0-------------------3-2-0-|
|-------2---3-2-5-3-------------2---3-2-5-3-------|
|-2-5-3---5---------------2-5-3---5---------------|
|-------------------------------------------------|

Riff 11A x7
|-----------------------------------------------------------------------------|
|-----------------------------------------------------------------------------|
|---7--6--7--7/15------7--6--7--7/15------5--4--5--5/13------5--4--5--5/13----|
|-0------------------0------------------0------------------0------------------|

Riff 11B x6
|---------------------------------------------------------------------|
|---------------------------------------------------------------------|
|-----7-----6-----7-----7-----15-15-----7-----6-----7-----7-----15-15-|
|-0-0---0-0---0-0---0-0---0-0-------0-0---0-0---0-0---0-0---0-0-------|

|---------------------------------------------------------------------|
|---------------------------------------------------------------------|
|-----5-----4-----5-----5-----13-13-----5-----4-----5-----5-----13-13-|
|-0-0---0-0---0-0---0-0---0-0-------0-0---0-0---0-0---0-0---0-0-------|

End With
|---------------------|
|---------------------|
|---7--6--7--7--------|
|-0-------------------|