Mastodon - Blood And Thunder Chords & Tabs

 

Blood And Thunder Chords & Tabs

Mastodon Chords & Tabs

Version: 4 Type: Tab 0 ratings
1 star 2 stars 3 stars 4 stars 5 stars
comments

Blood And Thunder Tab

   
Mastodon
Leviathan
copyright (c) Relapse records 2004
Tabbed by: FRANK	
Email: TOOL20@SYMPATICO.CA

 /  slide up
 \  slide down
 h  hammer-on
 p  pull-off
 x  Mute note
 .  P.M.
==================================================================================

Tuning: D,G,C,F,A,D

  INTRO AND VERSE  

   Guitar 1 for intro x1 Rhy.Fig.1                 Guitar 1 & 2 for verse x2 Rhy.Fig.1
e|--------------------------------------------------------------------------|
B|--------------------------------------------------------------------------|
G|--------------------------------------------------------------------------|
D|-9----7/9----7/9----7/9----7/9-10----7/9-10----10-10\9\7/10\9-------------|
A|-7----5/7----5/7----5/7----5/7-8-----5/7-8-----8---8\7\5/8-\7-------------|
E|---00-----00-----00-----00--------00--------00----------------------------|
     ..     ..     ..     ..        ..        ..
   
e|--------------------------------------------------------------------------|
B|--------------------------------------------------------------------------|
G|-------------------------------------------------------------end Rhy.Fig.1|
D|---7/9----7/9----7/9----7/9-10----7/9-10----10-10\9\7/10------------------|
A|---5/7----5/7----5/7----5/7--8-----5/7-8-----8--8\7\5/-8------------------|
E|00-----00-----00-----00--------00--------00-------------------------------|
  ..     ..     ..     ..        ..        ..

  CHORUS Guitar 1 & 2  x2
e|-------------------------------------------------------------------------|
B|-------------------------------------------------------------------------|
G|-------------------------------------------------------------------------| 
D|-------------------------------------------------------------------------|
A|-2---/8-8---5-5--/11-11---8-8---/14-14---11-11--/17-17--14-14------------|
E|-0---/6-6---3-3--/9--9----6-6---/12-12---9--9---/15-15--12-12------------|

  Guitar 1
e|-------------------------------------------------------------------------|
B|-------------------------------------------------end Rhy.Fig.2a----------|
G|-------------------------------------------------------------------------| 
D|--------17---14---18-----------------------------------------------------|
A|--11-----x----x----x-----------------------------------------------------|
E|---9----15---12---16------12 (bend full and release)---------------------|

  Guitar 2
e|-------------------------------------------------------------------------|
B|-------------------------------------------------end Rhy.Fig.2b----------|
G|-------------------------------------------------------------------------| 
D|-------------------------------------------------------------------------|
A|--11-11---/17-17---14-14---11--------------------------------------------|
E|---9--9---/15-15---12-12----9---12-(bend full and release)---------------|

  INTERLUDE

  E5 open                 
  Guitar 3           
e|---------------------------------12-|-----------------------------12---12-|
B|12-13-12h13p12----12----12-13-15----|12-13-12h13p12--12--12-13-15----15---|
G|---------------14----14-------------|--------------14--14-----------------|
D|------------------------------------|-------------------------------------|
A|------------------------------------|-------------------------------------|
E|------------------------------------|-------------------------------------|
  Guitar 4
e|--------------------------7------|-------------------------7----7-|
B|-7--8-7h8p7---7---7--8-10--------|-7--8-7h8p7---7---7-8-10---10---|
G|------------9---9----------------|------------9---9---------------|
D|---------------------------------|--------------------------------|
A|---------------------------------|--------------------------------|
E|---------------------------------|--------------------------------|
  Guitar 2
e|---------------------------------|----------------------------------------|
B|---------------------------------|----------------------------------------|
G|-------------------------------9-|-------------------------------9-----9--|
D|-9--10-9h10p9----9----9-10-12----|-9--10-9h10p9----9----9-10-12----12-----|
A|--------------12---12------------|--------------12---12-------------------|
E|---------------------------------|----------------------------------------|

  Guitar 1
e|---------------------------------|-------------------------|
B|---------------------------------|-------------------------|
G|---------------------------------|-------------------------|
D|---------------------------------|-------------------------|
A|-2-2-----------------------------|-2-2---------------------|
E|-0-0-----------------------------|-0-0---------------------|

  D5/A 
  Guitar 3
e|----------------------------10-|-----------------------------10--10-|
B|10-11-10h11p10--10--10-11-13---|10-11-10h11p10---10--10-11-13--13---|
G|--------------12--12-----------|---------------12--12---------------|x2
D|-------------------------------|------------------------------------|
A|-------------------------------|------------------------------------|
E|-------------------------------|------------------------------------|

  Guitar 4
e|------------------------5-|------------------------5---5---|
B|-5--6-5h6p5---5---5-6-8---|-5--6-5h6p5---5---5-6-8---8-----|
G|------------7---7---------|------------7---7---------------|x2
D|--------------------------|--------------------------------|
A|--------------------------|--------------------------------|
E|--------------------------|--------------------------------|

  Guitar 2
e|------------------------------|-----------------------------------|
B|------------------------------|-----------------------------------|
G|---------------------------7--|----------------------------7----7-|
D|-7--8-7h8p7----7----7-8-10----|-7--8-7h8p7-----7----7-8-10---10---|x2
A|------------10---10-----------|-------------10---10---------------|
E|------------------------------|-----------------------------------|
[ Tab from: http://www.guitartabs.cc/tabs/m/mastodon/blood_and_thunder_tab_ver_4.html ]
  Guitar 1
e|------------------------------|------------------------|
B|------------------------------|------------------------|
G|------------------------------|------------------------|x2
D|-0----x--0--------------------|-0----x---0-------------|
A|-0----x--0--------------------|-0----x---0-------------|
E|------------------------------|------------------------|

  Guitar 3 Riff A1
e|----------------------------12-|----------------------------12----12-|
B|-12-13-12----12----12-13-15----|-12-13-12----12----12-13-15----15----|
G|----------14----14-------------|----------14----14-------------------|x1
D|-------------------------------|-------------------------------------|
A|-------------------------------|-------------------------------------|
E|-------------------------------|-------------------------------------|

e|-----------------------------10-|---------------------------10----10-|
B|-10-11-10-----10----10-11-13----|10-11-10----10----10-11-13----13----|
G|-----------12----12-------------|----------12----12------------------|x2
D|--------------------------------|------------------------------------|
A|--------------------------------|------------------end--of--riff-A1--|
E|--------------------------------|------------------------------------|  

  Guitar 2 Riff A
e|-------------------------|---------------------------------|
B|-------------------------|---------------------------------|
G|-----------------------9-|------------------------9----9---|x1
D|-9-10-9----9---9-10-12---|-9-10-9----9----9-10-12---12-----|
A|--------12--12-----------|--------12---12------------------|
E|-------------------------|---------------------------------|

e|------------------------|-----------------------------end-of-riff-A-|
B|------------------------|-------------------------------------------|
G|----------------------7-|----------------------7----7---------------|x2
D|-7-8-7----7----7-8-10---|-7-8-7----7----7-8-10---10-----------------|
A|-------10---10----------|-------10---10-----------------------------|
E|------------------------|-------------------------------------------|


  Guitar 1 
e|----------------------|--------------------------|
B|----------------------|--------------------------|
G|----------------------|--------------------------|x1
D|------------------5-7-|------------------5-7-5-7-|
A|-7-8-7-5-7-5--7-8-----|--7-8-7-5-7-5-7-8---------|
E|----------------------|--------------------------|

e|---------------------|---------------------------|
B|---------------------|---------------------------|
G|---------------------|---------------------------|x2
D|-------------------5-|-------------------5---5---|
A|-5-6-5---5---5-6-8---|-5-6-5---5---5-6-8---8-----|
E|-------8---8---------|-------8---8---------------|

e|--------------------7-|--------------------7----7--|
B|-7-8-7---7---7-8-10---|-7-8-7---7---7-8-10---10----|
G|-------9---9----------|-------9---9----------------|x1
D|----------------------|----------------------------|
A|----------------------|----------------------------|
E|----------------------|----------------------------|

e|-------------------5-|-------------------5---5--|
B|-5-6-5---5---5-6-8---|-5-6-5---5---5-6-8---8----|x2
G|-------7---7---------|-------7---7--------------|
D|---------------------|--------------------------|
A|---------------------|--------------------------|
E|---------------------|--------------------------|

   BRIDGE

e|------------------------------------------------------------------------|
B|------------------------------------------------------------------------|
G|------------------------------------------------------------------------| 
D|-9-9-9-9-9-9-9-9-9-9-9-9--7-7-7-7--10-10-10-8--7-7-7-7-7-7-7-7--4-4-4-4-|
A|-7-7-7-7-7-7-7-7-7-7-7-7--5-5-5-5---8--8--8-6--5-5-5-5-5-5-5-5--2-2-2-2-|
E|------------------------------------------------------------------------|
                                                                           x4
e|------------------------------------------------------------------------|
B|------------------------------------------------------------------------|
G|------------------------------------------------------------------------|
D|-7-7-7-5--4-4-4-4-4-4-4-4-----------------------------------------------|
A|-5-5-5-3--2-2-2-2-2-2-2-2--6-6-6-6--9-9-9-7--6-6-6-6-6-6-6-6--5-4/5-4---| 
E|---------------------------4-4-4-4--7-7-7-5--4-4-4-4-4-4-4-4--3-2/3-2---|


OUTRO

  Guitar 1 & 2                       Guitar 1 substitutes Fill second time
e|----------------------------------------------|----------Fill----------|
B|----------------------------------------------|------------------------|
G|9-9----------------10\9-9------------------8/-|9-9-----------------12/-| 
D|X-X-----------------X----------------------X/-|X-X------------------X--|
A|7-7-----------------8\7-7------------------6/-|7-7-----------------10/-|
E|----2-1-0-1--2-1-0---------2-1-0-1--2-1-0-----|-----2-1-0-1--2-1-0-----|
      . . . .  . . .         . . . .  . . .           . . . .  . . .
    Guitar 1 ( Guitar 2 repeat the first measure)
e|----------------------------------------------------------------------|
B|----------------------------------------------------------------------|
G|-/13-13------------------14\13-13-------------------12/---------------|
D|---X--X-------------------X--X--X--------------------X----------------|
A|-/11-11------------------12\11-11-------------------10/---------------|
E|---------2-1-0-1--2-1-0-------------2-1-0-1--2-1-0--------------------|
           . . . .  . . .             . . . .  . . . 
  Guitar 1
e|----------------------------------------------------------------------|
B|----------------------------------------------------------------------|
G|-/13-13------------------14\13--13------------------7/9---------------|
D|---X--X-------------------X--X---X------------------X-----------------|
A|-/11-11------------------12\11--11------------------5/7---------------|
E|---------2-1-0-1--2-1-0--------------2-1-0-1--2-1-0-------------------|
           . . . .  . . .              . . . .  . . . 
  Guitar 2
e|----------------------------------------------------------------------|
B|----------------------------------------------------------------------|
G|--9--9------------------10\9-9-------------------8/9------------------|
D|--X--X-------------------X-----------------------X--------------------|
A|--7--7-------------------8\7-7-------------------6/7------------------|
E|---------2-1-0-1--2-1-0----------2-1-0-1--2-1-0-----------------------|
           . . . .  . . .          . . . .  . . .

Just miss the structure of the song... it's easy.
enjoy.!!!
Comments