Mastodon - Blood And Thunder Chords & Tabs

 

Blood And Thunder Chords & Tabs

Mastodon Chords & Tabs

Version: 1 Type: Tab 2 ratings
1 star 2 stars 3 stars 4 stars 5 stars
comments

Blood And Thunder Tab

   
Artist: Mastodon
Song: Blood and Thunder

tuning: down 1 whole step (D, G, C, F, A, D)

/ or \=slide
B=full bend
h=hammer on
p=pull-off
---|=palm mute

Intro/Verses

---------------------------------------------
---------------------------------------------
---------------------------------------------
--9--------7/9--------7/9--------7/9---------
--7--------5/7--------5/7--------5/7---------
-----0--0-------0--0-------0--0-------0--0---
     pm--|      ----|      ----|      ----|

-----------------------------------------------
-----------------------------------------------
-----------------------------------------------
--7/9--10--------7/9--10-------10--10\9\7/10---
--5/7--8---------5/7--8--------8---8-\7\5/8----
-----------0--0----------0--0------------------
           ----|         ----|

Chorus

---------------------------------------------------------------------
---------------------------------------------------------------------
---------------------------------------------------------------------
---------------------------------------------------------------------
-2---/8--8---5--5---/11--11----8--8---/14--14---11--11--/17--17---14-
-0---/6--6---3--3---/9---9-----6--6---/12--12---9---9---/15--15---12-

---------------------------------------------------
---------------------------------------------------
---------------------------------------------------
-----------------------17-------14-----18----------
--14----11--11---------x--------x------x-----------
--12----9---9----------15-------12-----16-----12B--

Interlude (lead guitar harmony only)

-------------------------------------------12--
--12--13--12h13p12-----12------12--13--15------
--------------------14-----14------------------
-----------------------------------------------
-----------------------------------------------
----------------------------------------------- play 2x

------------------------------------------10---
-10--11--10h11p10-----10------10--11--13-------
-------------------12-----12-------------------
-----------------------------------------------
-----------------------------------------------
----------------------------------------------- play 2x

-------------------------------------12--------
-12--13--12------12------12--13--15------------
-------------14------14------------------------
-----------------------------------------------
-----------------------------------------------
----------------------------------------------- play 2x

--------------------------------------10--------10)-
--10--11--10------10------10--11--13--------(13-----
--------------12------12----------------------------
---------------------------------------------------- play 2x
----------------------------------------------------
---------------------------------------------------- play the () notes the 2nd time
[ Tab from: http://www.guitartabs.cc/tabs/m/mastodon/blood_and_thunder_tab.html ]
-----------------------------7----
-7--8--7-----7-----7--8--10-------
----------9-----9-----------------
----------------------------------
----------------------------------
---------------------------------- play 2x

----------------------------5------5)--
-5--6--5-----5-----5--6--8------(8-----
----------7-----7----------------------
--------------------------------------- play 2x
---------------------------------------
--------------------------------------- play the () notes the 2nd time

Bridge (I'm too lazy to type out every strum, so I noted how many times to strum each chord) 

--------------------------------------------------
--------------------------------------------------
--------------------------------------------------
--9---------7--------10------7-------4------------
--7--(12x)--5--(4x)--8-(3x)--5-(8x)--2-(4x)-------
--------------------------------------------------

-----------------------------------------------------------
-----------------------------------------------------------
-----------------------------------------------------------
--7------5--4----------------------------------------------
--5-(3x)-3--2-(8x)--6-------9-------7--6-------5--4/5--4---
--------------------4-(4x)--7-(3x)--5--4-(8x)--3--2/3--2--- play whole riff 2x

Ourto riff

---------------------------------------------------------------------------
---------------------------------------------------------------------------
--9----9\\\------------------------10\9----9\\\------------------------8/--
--x----x---------------------------x-------x---------------------------x---
--7----7\\\------------------------8-\7----7\\\------------------------6/--
--------------2--1--0--1--2--1--0-----------------2--1--0--1--2--1--0------ play 2x
            pm-------------------|               --------------------|

----------------------------------------------------------
----------------------------------------------------------
--(8)/13----13\\\-----------------------14\13----13\\\----
--(x)-------x---------------------------x--------x--------
--(6)/11----11\\\-----------------------12\11----11\\\----
-------------------2--1--0--1--2--1--0--------------------
                 pm-------------------|

-----------------------------------------------------------
-----------------------------------------------------------
-----------------------12/13---13\\\-----------------------
-----------------------x-------x---------------------------
-----------------------10/11---11\\\-----------------------
--2--1--0--1--2--1--0-----------------2--1--0--1--2--1--0-- 
 pm------------------|                -------------------|

--------------------------------------------------
------------------------------------------------
---14\13----13\\\-------------------------7/9---
---x--------x-----------------------------x-----
---12\11----11\\\-------------------------5/7---
--------------------2--1--0--1--2--1--0---------
                  pm-------------------|

And that's all. Man that was tiresome. Well listen to the cd for timing and when to do what.
That tab is damn near perfect so have fun with it. Questions? Email me at sixstringz89@netscape.net
Comments