Masterplan - Soulburn Chords & Tabs

 

Soulburn Chords & Tabs

Masterplan Chords & Tabs

Version: 1 Type: Bass Tab 0 ratings
1 star 2 stars 3 stars 4 stars 5 stars
comments

Soulburn Bass Tab

   
Title: Soulburn
Artist: MasterPlan
Album: MasterPlan
Tabbed by: HÃ¥kan "Narvin" Johansson
E-Mail: Haakanj@hotmail.com

Intro:
A

Verse:
G:-----------------------------------------------------------------------------------I
D:-----------------------------------------------------------------------------------I
G:-----------------------------------------------------------------------------------I
D:-5-7/---------10-5---7-5-7--7-5-7--7-5-7--7-5-7--5---------------------------------I

G:-----------------------------------------------------------------------------------I
D:-----------------------------------------------------------------------------------I
G:---------------------------------------7-------------------------------------------I
D:-5-7-5--5-7-5--5-7-5--5-7-7--10--5--3----------------------------------------------I

Chorus:
G:-----------------------------------------------------------------------------------I
D:-----------------------------------------------------------------------------------I
G:-----------------------------------------------------------------------------------I
D:-3-2-2-3-2-2-0h2-3-2-2-3-2-2-5-----------------------------------------------------I
X2

Verse 2
G:-----------------------------------------------------------------------------------I
D:-----------------------------------------------------------------------------------I
G:-----------------------------------------------------------------------------------I
D:-7-5-7--7-5-7--7-5-7--7-5-7--5---7-5-7--7-5-7--7-5-7--7-5-7--3---------------------I

G:-----------------------------------------------------------------------------------I
D:-----------------------------------------------------------------------------------I
G:-------------------------------------------------------------------7---------------I
D:-7-5-7--7-5-7--7-5-7--7-5-7--5---7-5-7--7-5-7--7-5-7--7-5-7--5--3------------------I

Bridge:
G:-----------------------------------------------------------------------------------I
D:-----------------------------------------------------------------------------------I
G:-5-5-5-5-5-5-5-5-3-3-3-3----------5-5-5-5-5-5-5-5----------------------------------I
D:-------------------------6-6-6-6------------------5-5-5-5-3-3-3-3------------------I
[ Tab from: http://www.guitartabs.cc/tabs/m/masterplan/soulburn_btab.html ]
G:-----------------------------------------------------------------------------------I
D:-----------------------------------------------------------------------------------I
G:-5-5-5-5-5-5-5-5-3-3-3-3-----------------------------------------------------------I
D:-------------------------6-6-6-6-1-1-1-1-1-1-1-1-1-1-1-1-1-1-1-1-------------------I

Break:
A

Solo part: 
First you play A for 8 measures in the exactly the same 
rythm as inte the break before the solo. And then:

G:-----------------------------------------------------------------------------------I
D:-----------------------------------------------------------------------------------I
G:-----------------------------------------------------------------------------------I
D:-7-7-7-7-7-7-7-7-7-7-7-7-7-7-7-7-3-3-3-3-3-3-3-3-5-5-5-5-5-5-5-5-------------------I

G:-----------------------------------------------------------------------------------I
D:-----------------------------------------------------------------------------------I
G:-----------------------------------------------------------------------------------I
D:-7-7-7-7-7-7-7-7-7-7-7-7-7-7-7-7-3-3-3-3-3-3-3-3-2-2-2-2-2-2-2-2-------------------I

Bridge after solo:

G:-----------------------------------------------------------------------------------I
D:-----------------------------------------------------------------------------------I
G:-5-5-5-5-5-5-5-5-3-3-3-3----------5-5-5-5-5-5-5-5----------------------------------I
D:-------------------------6-6-6-6------------------5-5-5-5-3-3-3-3------------------I

G:-----------------------------------------------------------------------------------I
D:-----------------------------------------------------------------------------------I
G:-5-5-5-5-5-5-5-5-3-3-3-3-----------------------------------------------------------I
D:-------------------------6-6-6-6-1-1-1-1-1-1-1-1-1-1-1-1-1-1-1-1-------------------I

G:-----------------------------------------------------------------------------------I
D:-----------------------------------------------------------------------------------I
G:-7-7-7-7-7-7-7-7-5-5-5-5----------7-7-7-7-7-7-7-7----------------------------------I
D:-------------------------8-8-8-8------------------7-7-7-7-5-5-5-5------------------I

G:-----------------------------------------------------------------------------------I
D:-----------------------------------------------------------------------------------I
G:-7-7-7-7-7-7-7-7-5-5-5-5-----------------------------------------------------------I
D:-------------------------8-8-8-8-3-3-3-3-3-3-3-3-3-3-3-3-3-3-3-3-------------------I


Ending:
Same as intro but E instead.

That was all the parts, and they should be played in this order:

Intro
Verse
Chorus
Verse 2
Bridge
1/2 Chorus
Vers 2
Bridge X2
Chorus X2
Break
Solo
Bridge after solo
Ending
Comments