Masterplan - Enlighten Me Chords & Tabs

 

Enlighten Me Chords & Tabs

Masterplan Chords & Tabs

Version: 1 Type: Bass Tab 0 ratings
1 star 2 stars 3 stars 4 stars 5 stars
comments

Enlighten Me Bass Tab

   
Title: Enlighten me
Artist: MasterPlan
Album: MasterPlan
Tabbed by: HÃ¥kan "Narvin" Johansson
E-Mail: Haakanj@hotmail.com

Intro + Chorus

G:--------------------------------------------------------------
D:--------------------------------------------------------------
A:4-4-4-4-4-4-4-4-4-4-4-4-4-4-4-4-------------------------------
E:-------------------------------5-5-5-5-5-5-5-5-5-5-5-5-5-5-4-4


G:--------------------------------------------
D:--------------------------------------------
A:--------------------------------------------
E:-2-2-2-2-2-2-2-2-2-2-2-2-2-2-4-4-5-5-5-2-2-2

Verse
In the verse there is some weird rythm on the bass which I couldn't figure 
out how to tab, but it's F the whole way. Just listen to the song and you'll 
hear how it is. If you think it's hard to hear in the verse. Listen to the part 
just after the second chorus. It's much clearer there. Listen to the drums...

[ Tab from: http://www.guitartabs.cc/tabs/m/masterplan/enlighten_me_btab.html ]
Solo part
This part is divided into four different parts. 
First after the second chorus you play like in the verse for two measures. 
Then the figure goes like this:

Two measures F in the rythm of the verse and then two measures G# when you 
just play straight 8th. This pattern repeats three times.

And then...
(This part was a little hard to hear, but I think this is correct...)
G:-------------------------------
D:-------------------------------
A:2-2-2-2-0-2-2-2-2-2-2-2-2-2-2-2
E:-------------------------------

Repeat 8x (after 4x the guitar changes, but the bass stays the same.)

And the...

G:----------------
D:----------------
A:3-3-3-3-3-3-3-3-
E:----------------

6x

And then...

G:----------------
D:----------------
A:----------------
E:4-------1-------

Once

And then chorus.




If you want to send comments, praises, flames, corrections etc. 
Feel free to mail me. Haakanj@hotmail.com
Comments