Master Joey - Shitcake Chords & Tabs

 

Shitcake Chords & Tabs

Master Joey Chords & Tabs

Version: 1 Type: Tab 0 ratings
1 star 2 stars 3 stars 4 stars 5 stars
comments

Shitcake Tab

SHITCAKE
MASTERJOEY
DEMO

e-------------------------------------------------------------|
B-------------------------------------------------------------|
G-------------------------------------------------0-----------|
D-----0-2-3-2-0-----0-2-3-2-0-----0-2-3-2-0-----2---2-0-2-0-2-|
A---3---------------------------0-----------------------------|
E-----------------3----------------------------1--------------|

1era estrofa

e-------------------------|
B-------------------------|
G----3--------------------|
D----5----3----1----5-----| x2   Esto toda la primera estrofa
A----5----5----3----7-----|
E---------5----3----7-----|

2da estrofa

e------------------------------|
B------------------------------|
G--------------3----2----------|
D----1----3----5----4----5-----| x2   ( y no se ...... - ... no quiero...)
A----3----5----5----4----5-----|
E----3----5--------------7-----|
               1/2 tpo
                esto

Coro
[ Tab from: http://www.guitartabs.cc/tabs/m/master_joey/shitcake_tab.html ]
e---(1)- (2)--(3)--(4)--(5)----------------------------|
B------------------------------------------------------|
G----3------------------------(1)     (2)   (3---------|       (4)  (5)
D----5----3----5----1----3-----------------------------| me gustaria no quererte tanto....
A----5----5----7----3----3-----------------------------|
E---------5----7----3----5-----------------------------|
                    1/2 tpo    asi durante todo el coro
                       esto

Las siguientes estrofas se tocan igual respectivamente

ESTE ES EL PUNTEO DESPUES DEL CORO Y EL PRIMER PUNTEO NORMAL

e-------------------------------------------------------------|
B-------------------------------------------------------------|
G-------------------------------------------------0-----------|
D-----0-2-3-2-3-----0-2-3-2-3-----0-2-3-2-3-----2---2-0-2-0-2-|
A---3---------------------------0-----------------------------|
E-----------------3----------------------------1--------------|

CUALQUIER DUDA HALFWAYTOHOME@HOTMAIL.COM
Comments